Nirvana

home > Nirvana

Smells like teen spirit versao totalmente completa Tab

Nirvana

Difficulty: ExpertExpert

by supply

tuner correct add songbook print version text version save to e-mail
chordsukulelecavacokeyboardtabbassdrumsharmonicsflute Guitar Pro
chords

Smells like teen spirit versao totalmente completa

  		introducao:                                            
 2x sem distorcao.                                
4x com distorcao                      
 TAMBEM E O VERSO                                  riff:JUNTO COM HELLO 
 e|------------------------------------------       --1-------  
 b|------------------------------------------       -1--------   
 g|-------------3-3------------------6-6-----       ----------   
 d|--3-3-3-xxxx-3-3---5---6-6-6-xxxx-6-6--5--       ----------   
 a|--3-3-3-xxxx-1-1---5---6-6-6-xxxx-4-4--5--       ----------   
 E|--1-1-1-xxxx-------3---4-4-4-xxxx------3--       ----------   
 
Break:2 x 
 
E-|------------------------------------------------------------------| 
B-|------------------------------------------------------------------| 
G-|------------3^fb--------------------------------------------------| 
D-|-3-2-3-4-4--------------------------------------------------------| 
A-|-3-2-3-4-4--------------------------------------------------------| 
E-|-1-0-1-2-2--------------------------------------------------------| 
 
 
E-|------------------------------------------------------------------| 
B-|------------------------------------------------------------------| 
G-|------------3^fb--------------------------------------------------| 
D-|-3-2-3-4-4----------3-2-3/-8-6-3----------------------------------| 
A-|-3-2-3-4-4----------3-2-3/-8-6-3----------------------------------| 
E-|-1-0-1-2-2----------1-0-1/-6-4-1----------------------------------| 
 
 
VERSO NO  BAIXO 
G|--------------------------------------------------------------------| 
D|--------------------------------------------------------------------| 
A|---------1-1-1-1------------4-4-4-4---------------------------------| 
E|1-1-1-1------------4-4-4-4------------------------------------------| 
 
BASE DO SOLO NO BAIXO E TAMBEM REFRAO 
G|--------------------------------------------------------------------| 
D|--------------------------------------------------------------------| 
A|------1-1-1--------4-4-4--------------------------------------------| 
E|1~-1~--------4~-4~--------------------------------------------------| 
 
 
 
(F Bb G# C#)BASE DO SOLO 
 
"Solo":  2x. . .                                           
 e|------------------------------------------------------- 
 B|------------------------------------------------------- 
 G|-------8--10--------8-8b--5-6--5-6--------------------- 
 D|--10-----------6--------------------8-6--8-8b56-------- 
 A|------------------------------------------------------- 
 E|------------------------------------------------------- 
                        
 continuacao 4x:        
 e|-------------------------------- 
 B|-------------------------------- 
 G|-------------------------------- 
 D|--6-5-6-5-6-5-6-5---3-~-~------- 
 A|-------------------------------- 
 E|-------------------------------- 
 
VERSO+RIFF 
 
Load up on guns, bring your friends       
It's fun to lose, and to pretend           
She's overboard, myself assured 
I know I know, A dirty word 
 
	REFRAO+RIFF 
 
	hello, hello, hello, hello. . .hello, hello, hello, hello, 
	hello, hello, hello, hello. . .hello, hello, hello, hello 
 
	With the lights out it's less dangerous 
	Here we are now, entertain us 
	I feel stupid and contagious 
	Here we are now, entertain us. 
	A mulatto, an albino, a mosquito, my libido, Yea! 
break: 2X 
 
 
I'm worse at what I do best,         
and for this gift I feel blessed.                   
I met a group that's always been                  ------  
And always will until the end.                   - _x x_ -   
                                                 -   j   - 
	REFRAO, solo                             -  m   - 
                                                  - - -  
And I forget, just what the taste     
And yes I guess it makes me smile     
I found it hard. . .Its hard to find  
Oh well, whatever, nevermind 
 
 
_________________________________________________________________________________________ 
cifrado por ROMARIO R T G: PARA SEU COLEGA JOSIEL E PARA TODA GALERA QUE FLAGRA NIRVANA 
(JOAO FERNANDO DA BANDA NEMESIS DO ACRE e tambem a  banda `teu pai` neto, hugo, 
t.fialho, `guilherme`). 

	  

Full key step upFull key step up
Half key step upHalf key step up
Half key step downHalf key step down
Full key step downFull key step down
Search Paypal
auto scroll beats size up size down change color hide chords drawings
tab show chords e-chords YouTube Clip e-chords hide all tabs e-chords go to top tab