Nirvana

home > Nirvana

smell like teens spirit ( ver. 1 ) Tab

Nirvana

Difficulty: IntermediateIntermediate

by gabrielbarbosa

tuner correct add songbook print version text version save to e-mail
chordsukulelecavacokeyboardtabbassdrumsharmonicsflute Guitar Pro
chords

smell like teens spirit ( ver. 1 )

  		 
solo 
 
 
    ---------------------------------------------------e 
    ---------------------------------------------------b 
x2  5--8--10----8--10--8--6--5--6-5--3-1-3--5---3--1-0-g 
    -----------6---------------------------------------d 
    ---------------------------------------------------a 
    ---------------------------------------------------e 
 
     
x4  -1--0--1--0--1--0--1--0--1--0---------------G 
    -------------------------------3------------D  

	  

Search Paypal
auto scroll beats size up size down change color hide chords drawings
tab show chords e-chords YouTube Clip e-chords hide all tabs e-chords go to top tab