Newsboys

home > Newsboys

Reality Tab

Newsboys

Difficulty: nolevelnolevel

by vasodebarro

tuner correct add songbook print version text version save to e-mail
chordsukulelecavacokeyboardtabbassdrumsharmonicsflute Guitar Pro
chords

Reality

Year: 1996 - Album: Greatest Hits

  		Standard Tuning 

Verse: 

G---------------- 
D---------------- 
A---------------- 
E-1-3-1---11-3-1- 

PreChorus: 

G------------------------------------------- 
D------3---5--3---------5---7--------------- 
A-33-3---3---------55-5---5---5------------- 
E------------------------------------------- 


Chorus: 

G-------------------- 
D-------------------- 
A------2-----2---32-- 
E--3-3---3-3---3----- 


Verse: 

G---------------- 
D---------------- 
A---------------- 
E-1-3-1---11-3-1- 


PreChorus: 

G------------------------------------------- 
D------3---5--3---------5---7--------------- 
A-33-3---3---------55-5---5---5------------- 
E------------------------------------------- 


Chorus: 

G-------------------- 
D-------------------- 
A------2-----2---32-- 
E--3-3---3-3---3----- 

Bridge: 

play this as a hammer on 

G--------- 
D---------  4x 
A--0-3---- 
E--------- 

Then repeat Chorus 4x 


	  

Search Paypal
auto scroll beats size up size down change color hide chords drawings
tab show chords e-chords YouTube Clip e-chords hide all tabs e-chords go to top tab