Newsboys

home > Newsboys

Breakfast Tab

Newsboys

Difficulty: ExpertExpert

by vasodebarro

tuner correct add songbook print version text version save to e-mail
chordsukulelecavacokeyboardtabbassdrumsharmonicsflute Guitar Pro
chords

Breakfast

Year: 1996 - Album: Greatest Hits

  		Intro 

E------------------------------------------------------------------------ 
B------------------------------------------------------------------------ 
G------------------------------------------------------------------------ 
D---9--9--9--14--14--14---9--9--9--14--14--14---------------------------- 
A--7--7--7---12--12--12--7--7--7---12--12--12---------------------------- 
E------------------------------------------------------------------------ 

Verse 1 

E------------------------------------------------------------------------ 
B------------------------------------------------------------------------ 
G------------------------------------------------------------------------ 
D--------------------9--9-----------------------------9--9--------------- 
A---11-11-11-11-11--7--7---9--9--9---11-11-11-11-11--7--7---9--9--9------ 
E--9--9--9--9--9----------7--7--7---9--9--9--9--9----------7--7--7------- 
   Hold the milk put back the sugar they are powerless to console 

E------------------------------------------------------------------------ 
B------------------------------------------------------------------------ 
G------------------------------------------------------------------------ 
D--------------------9--9-----------------------------9--9--------------- 
A---11-11-11-11-11--7--7---9--9--9---11-11-11-11-11--7--7---9--9--9------ 
E--9--9--9--9--9----------7--7--7---9--9--9--9--9----------7--7--7------- 
   We gather here to sprinkle ashes from our late friends cereal bowl 

E------------------------------------------------------------------------ 
B------------------------------------------------------------------------ 
G------------------------------------------------------------------------ 
D--------------------9--9-----------------------------9--9--------------- 
A---11-11-11-11-11--7--7---9--9--9---11-11-11-11-11--7--7---9--9--9------ 
E--9--9--9--9--9----------7--7--7---9--9--9--9--9--9-------7--7--7------- 
   Breakfast clubbers say the motto that he taught us to repeat 

E------------------------------------------------------------------------ 
B------------------------------------------------------------------------ 
G------------------------------------------------------------------------ 
D--------------------9--9-----------------------------9--9--------------- 
A---11-11-11-11-11--7--7---9--9--9---11-11-11-11-11--7--7---9--9--9------ 
E--9--9--9--9--9----------7--7--7---9--9--9--9--9----------7--7--7------- 
   You will lose it in your gym class if you wait till noon to eat 

Bridge 
E------------------------------------------------------------------------ 
B------------------------------------------------------------------------ 
G------------------------------------------------------------------------ 
D---11-11-11-11-11-9--9---14--14--14---11-11-11-11-11-9--9---14--14--14-- 
A--9--9--9--9--9--7--7--12--12--12----9--9--9--9--9--7--7--12--12--12---- 
E------------------------------------------------------------------------ 
   Back when the chess club...        Every monday he'd say grace... 

E------------------------------------------------------------------------ 
B------------------------------------------------------------------------ 
G------------------------------------------------------------------------ 
D---11-11-11-11-11-9--9---14--14--14---11-11-11-11-11-9--9---14--14--14-- 
A--9--9--9--9--9--7--7--12--12--12----9--9--9--9--9--7--7--12--12--12---- 
E------------------------------------------------------------------------ 
  Oh none of us knew his...           But before his brain stopped... 

Chorus 
E------------------------------------------------------------------------ 
B------------------------------------------------------------------------ 
G--11--11--11--11-------------------------------------------------------- 
D--11--11--11--11--7--7--7--7--4--4--4--4--7--7--7--7-------------------- 
A---9---9---9---9--7--7--7--7--4--4--4--4--7--7--7--7-------------------- 
E------------------5--5--5--5--2--2--2--2--5--5--5--5-------------------- 
   When the toast has burned and all the milk has turned and 

E------------------------------------------------------------------------ 
B------------------------------------------------------------------------ 
G--11--11--11--11--------------7/9--9--9--9--9--9--9--9------------------ 
D--11--11--11--11--7--7--7--7--7/9--9--9--9--9--9--9--9------------------ 
A---9---9---9---9--7--7--7--7--5/7--7--7--7--7--7--7--7------------------ 
E------------------5--5--5--5-------------------------------------------- 
  Captain crunch is waving fare well 
------------------------------------------------------------------------- 
E------------------------------------------------------------------------ 
B------------------------------------------------------------------------ 
G--11--11--11--11-------------------------------------------------------- 
D--11--11--11--11--7--7--7--7--4--4--4--4--7--7--7--7-------------------- 
A---9---9---9---9--7--7--7--7--4--4--4--4--7--7--7--7-------------------- 
E------------------5--5--5--5--2--2--2--2--5--5--5--5-------------------- 
   When the big one finds you may this song remind you that they 

E------------------------------------------------------------------------ 
B------------------------------------------------------------------------ 
G--11--11--11--11--------------7/9--9--9--9--9--9--9--9------------------ 
D--11--11--11--11--7--7--7--7--7/9--9--9--9--9--9--9--9------------------ 
A---9---9---9---9--7--7--7--7--5/7--7--7--7--7--7--7--7------------------ 
E------------------5--5--5--5-------------------------------------------- 
   Don't serve breakfast in hell 


	  

Search Paypal
auto scroll beats size up size down change color hide chords drawings
tab show chords e-chords YouTube Clip e-chords hide all tabs e-chords go to top tab