Newsboys

home > Newsboys

Born Again Tab

Newsboys

Difficulty: ExpertExpert

by brunblazkowski

tuner correct add songbook print version text version save to e-mail
chordsukulelecavacokeyboardtabbassdrumsharmonicsflute Guitar Pro
chords

Born Again

  		
INTRO 
e|------------------------------| 
B|------------------------------| 
G|-6-6-xx-6-2-2-xx--------------| 
D|-6-6-xx-6-2-2-xx-2-2-xx-2-4-4-| 
A|-4-4-xx-4-0-0-xx-2-2-xx-2-4-4-| 
D|-----------------2-2-xx-2-4-4-| 

VERSE  No guitar, bass and effects 

CHORUS 
e|---------------------------------------------------------------------| 
B|---------------------------------------------------------------------| 
G|-6-6-xx-6-2-2-xx-2---------4-4-4-4---6-6-xx-6-2-2-xx-2-------4-4-4-4-| 
D|-6-6-xx-6-2-2-xx-2-2-2-2-2-4-4-4-4---6-6-xx-6-2-2-xx-2-2-2-2-4-4-4-4-| 
A|-4-4-xx-4-0-0-xx-0-2-2-2-2-2-2-2-2---4-4-xx-4-0-0-xx-0-2-2-2-2-2-2-2-| 
D|-------------------2-2-2-2-----------------------------2-2-2---------| 

e|---------------------------------------------------------------------| 
B|---------------------------------------------------------------------| 
G|--------------------------4-4-4-4-6-6-xx-6-2-2-xx-2----------6-6-6-6-| 
D|-4-4-xx-4-7-7-xx-7-2-2-xx-4-4-4-4-6-6-xx-6-2-2-xx-2-2-2-xx-2-4-4-4-4-| 
A|-4-4-xx-4-7-7-xx-7-2-2-xx-2-2-2-2-4-4-xx-4-0-0-xx-0-2-2-xx-2-2-2-2-2-| 
D|-4-4-xx-4-7-7-xx-7-2-2-xx---------------------------2-2-xx-2---------| 

BRIDGE 
e|-----------------------------------|    |-----------------| 
B|-----------------------------------|    |-----------------| 
G|---------------------------4-4-4-4-|    |-----------------| 
D|-4-4-xx-4-7-7-xx-7-2-2-2-2-4-4-4-4-| 2X |-4-4-4-4-7-7-7-7-| 
A|-4-4-xx-4-7-7-xx-7-2-2-2-2-2-2-2-2-|    |-4-4-4-4-7-7-7-7-| 
D|-4-4-xx-4-7-7-xx-7-2-2-2-2---------|    |-4-4-4-4-7-7-7-7-| 

e|-9--9--9--9--9--9--9--9--9--9--9--9--9--9--9--9--9--9--9--9--9--9--9--| 
B|-14-14-14-14-14-14-14-14-14-14-14-14-14-14-14-14-14-14-14-14-14-14-14-| 
G|----------------------------------------------------------------------|
D|----------------------------------------------------------------------|
A|----------------------------------------------------------------------|
E|----------------------------------------------------------------------|


e|-9--9--9--9--9--9--9--9--9--9--9--9--9--9--9--9--| 
B|-9--14-9--14-9--14-9--14-14-14-14-14-14-14-14-14-| 
G|-------------------------------------------------|
D|-------------------------------------------------|
A|-------------------------------------------------|
E|-------------------------------------------------|


CHORUS 2X (Watch for a little stop in the middle of the second time around) 

e|-----------------------------------| 
B|-----------------------------------| 
G|-6-6-xx-6-2-2-xx-2-----------------| 
D|-6-6-xx-6-2-2-xx-2-2-2-2-2-4-4-4-4-| 
A|-4-4-xx-4-0-0-xx-0-2-2-2-2-4-4-4-4-| 
D|-------------------2-2-2-2-4-4-4-4-| 
	  

Search Paypal
auto scroll beats size up size down change color hide chords drawings
tab show chords e-chords YouTube Clip e-chords hide all tabs e-chords go to top tab