Myslovitz

Ch?opcy

Myslovitz

tabs

by  DEIVCAVALCANTI

save to print version add songbook text version e-mail correct tuner
chordsukulelecavacokeyboardtabbassdrumsharmonicaflute Guitar Pro
close

there isn't a video lesson for this song

chords

Ch?opcy

Key:  C More
Ch?opcy Key GG
Ch?opcy Key G#G#
Ch?opcy Key AA
Ch?opcy Key A#A#(one step down)
Ch?opcy Key BB(half step down)
Ch?opcy Key CC(original key)
Ch?opcy Key C#C#(half step up)
Ch?opcy Key DD(one step up)
Ch?opcy Key D#D#
Ch?opcy Key EE
Ch?opcy Key FF
Ch?opcy Key F#F#
	  		Intro 

Gtr I (przez cala piosenke) 

e|--12---8---8---8---8---8---8---8---12---8---8---8---8---8---8---8--| 
B|---8---8---8---8---8---8---8---8----8---8---8---8---8---8---8---8--| 
G|-------------------------------------------------------------------|    
D|-------------------------------------------------------------------|   
A|-------------------------------------------------------------------|  
E|-------------------------------------------------------------------| 


Gtr II (w/ distortion) 

e|---------------------------------------------------------------------------------| 
B|---------------------------------------------------------------------------------| 
G|---------------------------------------------------------------------------------|    
D|---------------------------------------------------------------------------------|   
A|--10--10--x--x--x--x--10--10--x--x--x--x--10--10--x--x--x--x--10--10--9--9--9--9-|  
E|---8---8--x--x--x--x---8---8--x--x--x--x---8---8--x--x--x--x---8---8--7--7--7--7-| 

e|---------------------------------------------------------------------------------| 
B|---------------------------------------------------------------------------------| 
G|---------------------------------------------------------------------------------|    
D|---------------------------------------------------------------------------------|   
A|--10--10--x--x--x--x--10--10--x--x--x--x--10--10--x--x--x--x--10--10--9--9--9--9-|  
E|---8---8--x--x--x--x---8---8--x--x--x--x---8---8--x--x--x--x---8---8--7--7--7--7-| 


Chorus 

Gtr II 

     C                               G 
e|------------------------------------------------------------------| 
B|------------------------------------------------------------------| 
G|------------------------------------------------------------------|    
D|------------------------------------------------------------------|   
A|--10--10--10--10--10--10--10--10---5---5---5---5---5---5---5---5--|  
E|---8---8---8---8---8---8---8---8---3---3---3---3---3---3---3---3--| 

    A#                               A                         
e|------------------------------------------------------------------| 
B|------------------------------------------------------------------| 
G|------------------------------------------------------------------|    
D|------------------------------------------------------------------|   
A|---8---8---8---8---8---8---8---8---7---7---7---7---7---7---7---7--|  
E|---6---6---6---6---6---6---6---6---5---5---5---5---5---5---5---5--| x4 

Verse 

Gtr I 

e|--12---8---8---8---8---8---8---8---12---8---8---8---8---8---8---8--| 
B|---8---8---8---8---8---8---8---8----8---8---8---8---8---8---8---8--| 
G|-------------------------------------------------------------------|    
D|-------------------------------------------------------------------|   
A|-------------------------------------------------------------------|  
E|-------------------------------------------------------------------| x4 

Pre-Chorus 

Gtr II 

e|---------------------------------------------------------------------------------| 
B|---------------------------------------------------------------------------------| 
G|---------------------------------------------------------------------------------|    
D|---------------------------------------------------------------------------------|   
A|--10--10--x--x--x--x--10--10--x--x--x--x--10--10--x--x--x--x--10--10--9--9--9--9-|  
E|---8---8--x--x--x--x---8---8--x--x--x--x---8---8--x--x--x--x---8---8--7--7--7--7-| 

e|---------------------------------------------------------------------------------| 
B|---------------------------------------------------------------------------------| 
G|---------------------------------------------------------------------------------|    
D|---------------------------------------------------------------------------------|   
A|--10--10--x--x--x--x--10--10--x--x--x--x--10--10--x--x--x--x--10--10--9--9--9--9-|  
E|---8---8--x--x--x--x---8---8--x--x--x--x---8---8--x--x--x--x---8---8--7--7--7--7-| 

Chorus 

Gtr II 

     C                               G 
e|------------------------------------------------------------------| 
B|------------------------------------------------------------------| 
G|------------------------------------------------------------------|    
D|------------------------------------------------------------------|   
A|--10--10--10--10--10--10--10--10---5---5---5---5---5---5---5---5--|  
E|---8---8---8---8---8---8---8---8---3---3---3---3---3---3---3---3--| 

    A#                               A                         
e|------------------------------------------------------------------| 
B|------------------------------------------------------------------| 
G|------------------------------------------------------------------|    
D|------------------------------------------------------------------|   
A|---8---8---8---8---8---8---8---8---7---7---7---7---7---7---7---7--|  
E|---6---6---6---6---6---6---6---6---5---5---5---5---5---5---5---5--| x4 

I tak dalej... 



************************************ 

| x  Dead note 

************************************ 
		  

Full key step upFull key step up
Half key step upHalf key step up
Half key step downHalf key step down
Full key step downFull key step down
hide glossary

See also:

tabs Myslovitz - Ch?opcy tabs Myslovitz - Sprzedawcy marzeń tabs Ewa Farna - Nie Przegap
e-chords

Other versions:

tabs Myslovitz - Ch?opcy
auto scroll beats size up size down change color hide chords drawings
tab show chords e-chords YouTube Clip e-chords hide all tabs e-chords go to top tab

share