Misc Television

Titus End Theme

Misc Television

tabs

by  IRONPOWER4EVER

save to print version add songbook text version e-mail correct tuner
chordsukulelecavacokeyboardtabbassdrumsharmonicaflute Guitar Pro
close

there isn't a video lesson for this song

chords

Titus End Theme

	  		e:----------------------------------------------------------------------------------------| 
B:-----------------------------------3-----------------------------------------------3----| 
G:----0--2--2-0-2-0--------0--2--2/4---4\2-0----------0-2--2-0-2-0----------0-2--2/4---4\2| 
D:-2--0--2--2-0-2-0-2-0-2--0--2---------------2-0--2--0-2--2-0-2-0--2-0--2--0-2-----------| 
A:-2----------------2-0-2--------------------------2----------------2-0--2----------------| 
E:----------------------------------------------------------------------------------------| 

e:--------------------------------------------------------------3b-0-3-0-------| 
B:-----------------------------------------------------------------------3p0---| 
G:-0------2-2-----------0-2--0-2-0--2b-2-0----2-2-----------2-2----------------| 
D:---2-0--2-2-----------0-2--0-2-0---------2--2-2-----------2-2----------------| 
A:------------0-0-0-0-0---------------------------0-0-0-0-0--------------------| 
E:-----------------------------------------------------------------------------| 


e:----------------------------------------| 
B:----------------------------------------| 
G:----0--2--2-0-2-0--------0--2--0-2------| 
D:-2--0--2--2-0-2-0-2-0-2--0--2--0-2---2--| 
A:-2----------------2-0-2--------------2--| 
E:-------------------------------------0--|  
		  

See also:

tabs David Aguilar - Eco tabs Misc Computer Games - The Witcher 3 Ost - Lullaby Of Woe A Night To Remember Song (acoustic) tabs Misc Computer Games - Damned Black Ops Zombies Menu Music tabs Misc Computer Games - Undertale - His Theme tabs Misc Television - Gravity Falls Theme tabs Misc Computer Games - Far Cry 5 - We Will Rise Again
e-chords

Other versions:

tabs Misc Television - Titus End Theme
auto scroll beats size up size down change color hide chords drawings
tab show chords e-chords YouTube Clip e-chords hide all tabs e-chords go to top tab

share