Misc Television

Doctor Who - Claras Theme

Misc Television

tabs

by  MARCNAGEL

save to print version add songbook text version e-mail correct tuner
chordsukulelecavacokeyboardtabbassdrumsharmonicaflute Guitar Pro
close

there isn't a video lesson for this song

chords

Doctor Who - Claras Theme

	  		
Beginning (Part 1): 
   G                              Am                 G|2nd time only 
E|--3--------------------------------0--------------------3-|---------------| 
B|--0-----0--0--0-----0--1--3--1--0--1-----1--3--5--3--1--0-|---0-----------| 
G|--0--------------------------------2--------------------0-|--------0------| 
D|--0--------------------------------2--------------------0-|---------------| 
A|--2--------------------------------0--------------------2-|---------------| 
E|--3-----------------------------------------------------3-|---------------| 

Part 2: 
   C                              B                  C                  G 
E|--0-----0--0--0-----0--2--3--2--0--2--------0--2--0-----0-----------0--------3--| 
B|--1--------------------------------3-----3-----------3--1-----1--3-----3--1--0--| 
G|--0--------------------------------4--------------------0--------------------0--| 
D|--2--------------------------------4--------------------2--------------------0--| 
A|--3--------------------------------2--------------------3--------------------2--| 
E|-----------------------------------------------------------------------------3--| 


Play Part 1 here with the last little bit 

Part 3: 
   G 
E|--3--------------------------3--2--------------------------------------| 
B|--3--------1--0--------------------3--------------1--0-----------------| 
G|--0--------------2--0--2--------------2-----------------2--0--2--2--0--| 
D|--0--------------------0--------------------------------------0--------| 
A|--2--2--3--------------------------------0--2--3-----------------------| 
E|--3--------------------------------------------------------------------| 

Part 4: 
                       Em              C   D+4    Em 
E|------------0---------------3-2-0----------------------0-----------| 
B|------------0----------------------3-0--1------3-------0-----------| 
G|--4-(x12)---7-(x12)---0-----------------0------0-------0-----------| 
D|--4-(x12)---7-(x12)---2-----------------2------4-------2-----------| 
A|--2-(x12)---5-(x12)---2-----------------3------5-------2-----------| 
E|------------0------------------------------------------0-----------| 
		  

Full key step upFull key step up
Half key step upHalf key step up
Half key step downHalf key step down
Full key step downFull key step down
auto scroll beats size up size down change color hide chords drawings
tab show chords e-chords YouTube Clip e-chords hide all tabs e-chords go to top tab

share