Misc Computer Games

The Sims 3 - Main Theme

Misc Computer Games

tabs

by  FERNSANTANA

save to print version add songbook text version e-mail correct tuner
chordsukulelecavacokeyboardtabbassdrumsharmonicaflute Guitar Pro
close

there isn't a video lesson for this song

chords

The Sims 3 - Main Theme

	  		


e|-------------------------------------------------------------------------| 
B|-8~--7h8-8~--7h8-8~--10-7-8~--7h8-8~--7h8-8~--7h8-8~--10-7-8~------------| 
G|-------------------------------------------------------------------------| 
D|-------------------------------------------------------------------------| 
A|-------------------------------------------------------------------------| 
E|-------------------------------------------------------------------------| 

e|-------------10----------------------------------------------------------| 
B|-12-12-12h13---------------12-10~----10h12-7-8~--------------------------| 
G|----------------12~--12/14--------12-------------------------------------| 
D|-------------------------------------------------------------------------| 
A|-------------------------------------------------------------------------| 
E|-------------------------------------------------------------------------| 

e|-------------10---------------------------14-15\-------------------------| 
B|-12-12-12h13----13~--12-13-13/15-12-13h15--------------------------------| 
G|-------------------------------------------------------------------------| 
D|-------------------------------------------------------------------------| 
A|-------------------------------------------------------------------------| 
E|-------------------------------------------------------------------------| 

e|-------------------------------------------------------------------------| 
B|-13s13s13-15-17--12s12s12-13-15-----------12-13--------------12----------| 
G|---------------------------------14s14s14--------12s12s12-14-------------| 
D|-------------------------------------------------------------------------| 
A|-------------------------------------------------------------------------| 
E|-------------------------------------------------------------------------| 

e|---------------------------------10s10s10-12-14--12s12s12-14-15----------| 
B|-13s13s13-15-17--12s12s12-13-15------------------------------------------| 
G|-------------------------------------------------------------------------| 
D|-------------------------------------------------------------------------| 
A|-------------------------------------------------------------------------| 
E|-------------------------------------------------------------------------| 

e|-------------------------------------------------------------------------| 
B|-13s13s13-15-17--12s12s12-13-15-----------12-13--------------12----------| 
G|---------------------------------14s14s14--------12s12s12-14-------------| 
D|-------------------------------------------------------------------------| 
A|-------------------------------------------------------------------------| 
E|-------------------------------------------------------------------------| 

e|-------------------------------------------------------------------------| 
B|----------12-13-----------12-13--12s12s12-13-15-13-----------------------| 
G|-14s14s14--------14s14s14------------------------------------------------| 
D|-------------------------------------------------------------------------| 
A|-------------------------------------------------------------------------| 
E|-------------------------------------------------------------------------| 

e|-------------------------------12/14--12---------------------------------| 
B|-13~--12~------------13~--12~-------------13~--12~-----------------------| 
G|-----------14~--12~---------------------------------14~--12~-------------| 
D|-------------------------------------------------------------------------| 
A|-------------------------------------------------------------------------| 
E|-------------------------------------------------------------------------| 

e|---------------------| 
B|-----------15~-------| 
G|-14~-----------------| 
D|---------------------| 
A|---------------------| 
E|---------------------| 

e|-------------10----------------------------------------------------------| 
B|-12-12-12h13---------------12-10~----10h12-7-8~--------------------------| 
G|----------------12~--12/14--------12-------------------------------------| 
D|-------------------------------------------------------------------------| 
A|-------------------------------------------------------------------------| 
E|-------------------------------------------------------------------------| 

e|-------------10---------------------------14-15\-------------------------| 
B|-12-12-12h13----13~--12-13-13/15-12-13h15--------------------------------| 
G|-------------------------------------------------------------------------| 
D|-------------------------------------------------------------------------| 
A|-------------------------------------------------------------------------| 
E|-------------------------------------------------------------------------| 


e|-------------------------------------------------------------------------| 
B|-13~--12h13-13~--12h13~--15-12-13~--12h13~--12h13~--12h13~--15-12-13~----| 
G|-------------------------------------------------------------------------| 
D|-------------------------------------------------------------------------| 
A|-------------------------------------------------------------------------| 
E|-------------------------------------------------------------------------| 

e|-12-12-10h12-10------------------------------12-12-10h12-14-15-----------| 
B|----------------13~--10-12-12/13--15-12-13~------------------------------| 
G|-------------------------------------------------------------------------| 
D|-------------------------------------------------------------------------| 
A|-------------------------------------------------------------------------| 
E|-------------------------------------------------------------------------| 

e|-12-14-15--17-19-20-20b22--------------| 
B|---------------------------------------| 
G|---------------------------------------| 
D|---------------------------------------| 
A|---------------------------------------| 
E|---------------------------------------| 


 
		  

See also:

tabs Guru Josh Project - Infinity 2008 tabs Bruno Mars - Runaway Baby tabs Misc Computer Games - Far Cry 5 - Now That This Old World Is Ending tabs Misc Television - Doctor Who - Claras Theme tabs Misc Computer Games - Yoshis Island - Story Music Box tabs Misc Television - Gravity Falls Theme
e-chords

Other versions:

tabs Misc Computer Games - The Sims 3 - Main Theme
auto scroll beats size up size down change color hide chords drawings
tab show chords e-chords YouTube Clip e-chords hide all tabs e-chords go to top tab

share