Misc Computer Games

Street Fighter 2 - Guiles Theme

Misc Computer Games

tabs

by  TERR_SCHMITZ

save to print version add songbook text version e-mail correct tuner
chordsukulelecavacokeyboardtabbassdrumsharmonicaflute Guitar Pro
close

there isn't a video lesson for this song

chords

Street Fighter 2 - Guiles Theme

	  		
Intro  
(Repeat x1)                               

    Am                                    
e|------------------------------------------------------------------| 
B|--1-1-0-0-1-----1-0--1-1-0-0-1-----1-0-1p0---0h1-1p0-1/3-3\1-0----| 
G|--2-2-0-0-2--2--2-0--2-2-0-0-2--2--2-0-----0-------------------0--| 
D|------------2-2----------------2-2--------------------------------| 
A|--0------------------0--------------------------------------------| 
E|---------------------------------------3--------------------------| 
                   |-offset-| 
   Am                 
e|-------------------0-----3-1-0h1p0--------------1-3-0-0-----------| 
B|--------1---0-1h3-----3------------0-1-3----0-3---------3p0-------| 
G|--2--2----2----------0--------------------0-----------------------| 
D|----2-2----------------------------------0------0-----------------| 
A|--0---------------3------------------0-2----------2-3-------------| 
E|------------------------3----------3------------------------------| 

    Am 
e|------------------0-0h1-------0-0h1-3---------5-7/8-12--10--------| 
B|--------1---0-1h3-------3---0-------------0-----------------12--8-| 
G|--2--2----2---------------0------------0----0---------------------| 
D|----2-2-------------------------------2-2-----3-5/7-10--9---------| 
A|--0---------------3-0---------------------------------------10--7-| 
E|------------------------3-----------0-----------------------------| 

                                       Am 
e|----------7-8h10---------7-8h10--0--------------------------------| 
B|--10-------------10----------------0-0h1-----1-0-1-1-0-0-1-----1-0| 
G|-----------------------------------0-0h2--2--2-0-2-2-0-0-2--2--2-0| 
D|------0-0------------0-0-----------------2-2---------------2-2----| 
A|--8--0-0---------8--0-0--------------------------0----------------| 
E|---------------------------------0--------------------------------| 

    F                              Am 
e|--1-----1---0-------------------------------------------------------| 
B|--------------3/5-3---1---0------1-1-0-0-1-----1-0-1-1-0-0-1-----1-0| 
G|-----2----2----------0---0---0---2-2-0-0-2--2--2-0-2-2-0-0-2--2--2-0| 
D|----3-3-------------0---0---0--------------2-2---------------2-2----| 
A|---------------------------2-----0-----------------0----------------| 
E|--1---------------3-------------------------------------------------| 
  
   Am 
e|-----------------------------------------1-----0--------------------| 
B|--------1---0-1h3-5-6-3-0-----0-1-3---3----------3/5-3--0-----------| 
G|--2--2----2---------------2h4-------0-------------------------------| 
D|----2-2----------------------------------0--------------------------| 
A|--0---------------3-5-----------0-2---------0----2/4-2--------------| 
E|----------------------3-------3-------------------------3-----------| 
  
   Am                          Am 
e|----------------------------0---------------------------------------| 
B|--------1---0-1h3-3-----3-----1p0--------0-0h1-----1-1-0-0-1-----1-0| 
G|--2--2----2----------0----0---2p0--0h2-2-0-0h2--2--2-2-0-0-2--2--2-0| 
D|----2-2-------------0-0------------0h2-2-------2-2-----------2-2----| 
A|--0------------------------------------------------0----------------| 
E|------------------3--------------------0----------------------------| 

                                                played strumming 
                                                low E thumb muted 
    Am                              Am          Am 
e|------------------0-----3--1--0----------------0--------------------| 
B|--------1---0-1h3-----------------0-0h1--1-----1--------------------| 
G|--2--2----2----------0------------0-0h2--2-----2--------------------| 
D|----2-2----------------------------------------0--------------------| 
A|--0---------------3-----3----------------------0--------------------| 
E|-----------------------------------------------x--------------------| 

        played strumming 
        low E thumb muted except on G 
   Alternate                            Alternate 
   Am Open   Open G    Cmaj7  Em  Open  Am  ;Open 
e|-0--0--------0---3------0----0----0-----0---0-----------------------| 
B|-1--0--------0---3------0----0----0-----1---0-----------------------| 
G|-2--0--------0---0------0----0----0-----2---0-----------------------| 
D|-2--0--------0---0------2----0----0-----2---0-----------------------| 
A|-0--0--------0---2------3----2----0-----0---0-----------------------| 
E|-x--x--------0---3------x----x----x-----x---x-----------------------| 


Outro  

(Played slow) 
e|----------------------------------------------------------| 
B|--1p0---0h1-1p0-1/3-3\1-0-----1--1p0--0h1-----------------| 
G|------0-------------------0---2--2p0--0h2-----------------| 
D|----------------------------------------------------------| 
A|----------------------------------------------------------| 
E|--3-------------------------------------------------------|  
		  

Full key step upFull key step up
Half key step upHalf key step up
Half key step downHalf key step down
Full key step downFull key step down
auto scroll beats size up size down change color hide chords drawings
tab show chords e-chords YouTube Clip e-chords hide all tabs e-chords go to top tab

share