Misc Computer Games

home > Misc Computer Game...

Stalker - Campfire Song Tab

Misc Computer Games

Difficulty: nolevelnolevel

by robepoiel

tuner correct add songbook print version text version save to e-mail
chordsukulelecavacokeyboardtabbassdrumsharmonicsflute Guitar Pro
chords

Stalker - Campfire Song

	  
Stalker - some guitar 

        Am              Dm                     E        Am 
e|-----0-0-----0-0-----1-1-----1-1-----0-0---0-0---------0---| 
B|-----1-1-----1-1-----3-3-----3-3-----0-0---0-0---------1---| 
G|-----2-2-----2-2-----2-2-----2-2-----1-1---1-1-------2-----| 
D|-----------2-------0-------------------------------2-------| 
A|---0-----------------------0-------------2-------0---------| 
E|-----------------------------------0-----------------------|  x2 

             E              Dm            E 
e|-----------0--------------1-------------0-------| 
B|---------0---0----------3---3---------0---0-----| 
G|-------1-------1------2-------2-----1-------1---| 
D|-------------------0----------------------------| 
A|------------------------------------------------| 
E|-----0----------------------------0-------------| 

        Am              Dm             G              C           Am 
e|-----0-0-----0-0-----1-1---1-1-----3-3----3-3-----0-0---0------0-0----0-0---| 
B|-----1-1-----1-1-----3-3---3-3-----0-0----0-0-----1-1---1------1-1----1-1---| 
G|-----2-2-----2-2-----2-2---2-3-----0-0----0-0-----0-0---0------2-2----2-2---| 
D|-----------2-------0----------------------------------2-------------2-------| 
A|---0---------------------0--------------2-------3----------2-0--------------| 
E|---------------------------------3------------------------------------------| 

        Dm              G     E       Am 
e|-----1-1----1-1-------3-----0--------0---| 
B|-----3-3----3-3-------0-----0--------1---| 
G|-----2-2----2-2-----0-----1--------2-----| 
D|---0-----------------------------2-------| 
A|-----------0-------------------0---------| 
E|------------------3-----0----------------| 
	  

there isn't a video lesson for this song

request
Full key step upFull key step up
Half key step upHalf key step up
Half key step downHalf key step down
Full key step downFull key step down
Search Paypal
auto scroll beats size up size down change color hide chords drawings
tab show chords e-chords YouTube Clip e-chords hide all tabs e-chords go to top tab