Misc Computer Games

Journey - Nascence Tab

Misc Computer Games

Difficulty: nolevelnolevel

by lucicamargo

tuner correct add songbook print version text version save to e-mail
chordsukulelecavacokeyboardtabbassdrumsharmonicsflute Guitar Pro
close

there isn't a video lesson for this song

request
chords

Journey - Nascence

  		
e|---------------------------------------------------------------------------| 
B|---------------------------------------------------------------------------| 
G|---------------------------------------------------------------------------| 
D|--------------------0-------------------------4-----2-----0----------------| 
A|--2~-----------2--4---------2------------2--4-----5-----4-----4---------2~-| 
E|-----------5-----------5-------------5-----------------------------5-------| 

e|-------------------------------------------2-------------------------------| 
B|------------------2--3------------------2-----3--5----2--3--2--------------| 
G|--2----4----2--4--------2----4----2--4--------------------------2----------| 
D|--------------------------------------------------------------------4~-----| 
A|---------------------------------------------------------------------------| 
E|---------------------------------------------------------------------------| 

e|---------------------5----7--------7--9--10--------------------------14----| 
B|----------3-----3--------------10------------10----12----10--12--14--------| 
G|--4----4-----4-------------------------------------------------------------| 
D|---------------------------------------------------------------------------| 
A|---------------------------------------------------------------------------| 
E|---------------------------------------------------------------------------| 

e|--10--12----12------10----12-----------------------------------------------| 
B|----------------14------------14~-----14\10~----10--12~--------------------| 
G|---------------------------------------------------------------------------| 
D|---------------------------------------------------------------------------| 
A|---------------------------------------------------------------------------| 
E|---------------------------------------------------------------------------| 

************************************ 


| \   Slide down 
| ~   Vibrato 

************************************ 
	  

Search Paypal
auto scroll beats size up size down change color hide chords drawings
tab show chords e-chords YouTube Clip e-chords hide all tabs e-chords go to top tab

share with facebook