Misc Computer Games

Donkey Kong 64 - Dk Rap Tab

Misc Computer Games

Difficulty: nolevelnolevel

by bombaXXX

tuner correct add songbook print version text version save to e-mail
chordsukulelecavacokeyboardtabbassdrumsharmonicsflute Guitar Pro
close

there isn't a video lesson for this song

request
chords

Donkey Kong 64 - Dk Rap

  		Verse 

    E5                       N.C. 
e|--------------------------------------------12b-12b--| 
B|-----------------------------------------------------| 
G|---------------------------7-9-9-7-9-----------------| 
D|-----------------------------------------------------| 
A|--2---------2----------------------------------------| 
E|--0---------0----------------------------------------| 
                                            (micro-bends) 

    E5                       N.C. 
e|--------------------------------------------24\\\\\12--| 
B|-------------------------------------------------------| 
G|---------------------------7-9-9-7-9-------------------| 
D|-------------------------------------------------------| 
A|--2---------2------------------------------------------| 
E|--0---------0------------------------------------------| 
                                            (slow slide) 


    E5                       N.C. 
e|--------------------------------------------12b-12b--| 
B|-----------------------------------------------------| 
G|---------------------------7-9-9-7-9-----------------| 
D|-----------------------------------------------------| 
A|--2---------2----------------------------------------| 
E|--0---------0----------------------------------------| 
                                            (micro-bends) 

    E5                       N.C. 
e|--------------------------------------------24\\\\\12--| 
B|-------------------------------------------------------| 
G|---------------------------7-9-9-7-9-------------------| 
D|-------------------------------------------------------| 
A|--2---------2------------------------------------------| 
E|--0---------0------------------------------------------| 
                                            (slow slide) 

    E5                       N.C. 
e|--------------------------------------------12b-12b--| 
B|-----------------------------------------------------| 
G|---------------------------7-9-9-7-9-----------------| 
D|-----------------------------------------------------| 
A|--2---------2----------------------------------------| 
E|--0---------0----------------------------------------| 
                                            (micro-bends) 

  E5                       N.C. 
e|-------------------------------------------------------| 
B|-------------------------------------------------------| 
G|---------------------------7-9-9-7-9-------------------| 
D|-------------------------------------------------------| 
A|--2---------2------------------------------------------| 
E|--0---------0---------------------------7--7\\\\\\\\0--| 
                                      p.m. (slow slide) 



************************************ 

| b  Bend 
| \  Slide down 

************************************ 
	  

Full key step upFull key step up
Half key step upHalf key step up
Half key step downHalf key step down
Full key step downFull key step down
Search Paypal
auto scroll beats size up size down change color hide chords drawings
tab show chords e-chords YouTube Clip e-chords hide all tabs e-chords go to top tab

share with facebook