Misc Cartoons

home > Misc Cartoons

Lavender Town Tab

Misc Cartoons

Difficulty: nolevelnolevel

by jessgomes

tuner correct add songbook print version text version save to e-mail
chordsukulelecavacokeyboardtabbassdrumsharmonicsflute Guitar Pro
chords

Lavender Town

  		E|--------15---18---14----------| 
A|-13---------------------------| 
D|------------------------------|  (4x) 
G|------------------------------| 
B|------------------------------| 
E|------------------------------| 
 
 
E|---------------------------------11-------------| 
A|-12---12---9---9---12--11--9----------8---8-----| 
D|------------------------------------------------| 
G|------------------------------------------------| 
B|------------------------------------------------| 
E|------------------------------------------------| 
 
 
E|---------------------11-----------11---12----12-| 
A|-12---12---11---11-------12---11----------------| 
D|------------------------------------------------| 
G|------------------------------------------------| 
B|------------------------------------------------| 
E|------------------------------------------------| 
	  

Search Paypal
auto scroll beats size up size down change color hide chords drawings
tab show chords e-chords YouTube Clip e-chords hide all tabs e-chords go to top tab