Misc Cartoons

home > Misc Cartoons

Horrid Henry Theme Tab

Misc Cartoons

Difficulty: AdvancedAdvanced

by lucicamargo

tuner correct add songbook print version text version save to e-mail
chordsukulelecavacokeyboardtabbassdrumsharmonicsflute Guitar Pro
chords

Horrid Henry Theme

  		

Intro starts with: 
e|----------------------------|| 
b|----------------------------|| 
g|--11~-----------------------|| 
d|--11~-11-11---9-9-8-9-11----|| 
A|---9~-11-11---9-9-8-9-11----|| 
E|-------9--9---7-7-6-7- 9----|| (2x) 


Slight difference during verse: 
e|----------------------------|| 
b|----------------------------|| 
g|--11~-----------------------|| 
d|--11~-11-11---9-9-8-9-8-----|| 
A|---9~-11-11---9-9-8-9-8-----|| 
E|-------9--9---7-7-6-7-6-----|| 

e|----------------------------|| 
b|----------------------------|| 
g|--11~-----------------------|| 
d|--11~-11-11---9-9-8-9-11----|| 
A|---9~-11-11---9-9-8-9-11----|| 
E|-------9--9---7-7-6-7- 9----|| 

Repeat verse till: 
e|----------------------------|| 
b|----------------------------|| 
g|--------6-----------8-------|| 
d|--6-----6-----8-----8-------|| 
A|--6-----4-----8-----6-------|| 
E|--4-----------6-------------|| 
 send...room...sing...tune 


Chorus 
e|----------------------------|| 
b|----------------------------|| 
g|-----8-8----6-6-5-6-5-------|| 
d|--6--8-8----6-6-5-6-5-------|| 
A|--6--6-6----4-4-3-4-3-------|| 
E|--4-------------------------|| 
   Na na na na na... 

e|----------------------------|| 
b|----------------------------|| 
g|-----8-8----6-6-5-6-8-------|| 
d|--6--8-8----6-6-5-6-8-------|| 
A|--6--6-6----4-4-3-4-6-------|| 
E|--4-------------------------|| 

e|----------------------------|| 
b|----------------------------|| 
g|-----8-8----6-6-5-6-5-------|| 
d|--6--8-8----6-6-5-6-5-------|| 
A|--6--6-6----4-4-3-4-3-------|| 
E|--4-------------------------|| 


e|-------------|| 
b|-------------|| 
g|--11---------||      
d|--10---------||           
A|--12---------|| 
E|--10---------|| 
 
	  

Search Paypal
auto scroll beats size up size down change color hide chords drawings
tab show chords e-chords YouTube Clip e-chords hide all tabs e-chords go to top tab