Misc Cartoons

home > Misc Cartoons

Code Geass - Kaidoku Funou Tab

Misc Cartoons

Difficulty: nolevelnolevel

by marcnagel

tuner correct add songbook print version text version save to e-mail
chordsukulelecavacokeyboardtabbassdrumsharmonicsflute Guitar Pro
chords

Code Geass - Kaidoku Funou

  		Standard Tuning 

Intro 
e-----0~---0-0-----0---| 
b---2----------2-----2-| 
g-2--------------2-----| 
d----------------------| 
a----------------------| 
e----------------------| 

Verse/Post-Chorus 
e-------------------------------------------------| 
b-------------------------------------------------| 
g-------------------------------------------------| 
d-----2-------------2-----------------------------| 
a-2h4---2-x-x-x-2h4---2-x-x-x-2h4-4---------------| 
e-----------------------------------2-2-2/5/2-0-2-| 

Chorus (Not in rhythm but should be easy to time it) 
Guitar 1 
e-----------------------------------------------------------------| 
b-----------------------------------------------------------------| 
g-6666666-4444444-99999-66666-11--4-666-4-44444-9999999999-11-----|   2x 
d-xxxxxxx-xxxxxxx-xxxxx-xxxxx--x--x-xxx-x-xxxxx-xxxxxxxxxx--x-----| 
a-4444444-2222222-77777-44444--9--2-444-2-22222-7777777777--9-----| 
e-----------------------------------------------------------------| 

Guitar 2 plays in 2nd part of Chorus and other parts later on 
e---------------------------------------------------------| 
b---------------------------------------------------------| 
g-111111111111-999999-111111111111-1414-9-1111111111-9~---| 
d--x-x-x-x-x-x-xxxxxx--x-x-x-x-x-x--x-x-x--x-x-x-x-x-x~---| 
a--9-9-9-9-9-9-777777--9-9-9-9-9-9-1212-7--9-9-9-9-9-7~---| 
e---------------------------------------------------------| 

Verse/Post-Chorus 
Intro 

Outro 
e-------4~---4----------------------4~---4----------------| 
b---0-2-----------0-2-3~---3----0-2-----------0-2-3~---3--| 
g-2-------------2-------------2-------------2-------------| 
d---------------------------------------------------------| 
a---------------------------------------------------------| 
e---------------------------------------------------------| 
	  

Search Paypal
auto scroll beats size up size down change color hide chords drawings
tab show chords e-chords YouTube Clip e-chords hide all tabs e-chords go to top tab