Misc Cartoons

home > Misc Cartoons

Captain Pugwash Tab

Misc Cartoons

Difficulty: nolevelnolevel

by tarikike

tuner correct add songbook print version text version save to e-mail
chordsukulelecavacokeyboardtabbassdrumsharmonicsflute Guitar Pro
chords

Captain Pugwash

  		-------------------------------------------------------| 
-------------------------------------8-----------------| 
---------------------------5-4---4-7---7-4-------------| 
----5-5-5-5----5-5-5-5---------5-----------5-----------| 
-------------------------------------------------------| 
-------------------------------------------------------| 

-------------------------------------------------------| 
-------------------------------------------------------| 
-------------------------------------5-----------------| 
---------------------------5-4---4-7---7-4-------------| 
----5-5-5-5----5-5-5-5---------5-----------5-----------| 
-------------------------------------------------------| 

-------------------------------------------------------| 
-------------------------------------8-8---------------| 
---------------------------5-4---4-7-------------------| 
----5-5-5-5----5-5-5-5---------5-----------------------| 
-------------------------------------------------------| 
-------------------------------------------------------| 

-------------------------------------------------------| 
----7-10-8-7---5-8-7-5---------------------------------| 
-----------------------7---4-5----7-7-7-7---7-7-7-7----| 
-------------------------------------------------------| 
-------------------------------------------------------| 
-------------------------------------------------------| 

-------------------------------------------------------| 
----5-7-8-7-5-----------5------------------------------| 
--------------7-5-4-5-7---7-5-4------------------------| 
--------------------------------7-5-4-5-7-5-4-----4----| 
----------------------------------------------5-7------| 
-------------------------------------------------------| 

-------------------------------------------------------| 
-------------------------------------------------------| 
-------------------------------------------------------| 
----5-5-5-5----3-3-3-3---------------------------------| 
--------------------------7-7-7-7----6-6-6-6-----------| 
-------------------------------------------------------| 

-------------------------------------------------------| 
------8-7-5--------------------------------------------| 
------------7-5-4------4-------------------------------| 
----5-------------7-5-----5----------------------------| 
-------------------------------------------------------| 
-------------------------------------------------------| 
	  

Search Paypal
auto scroll beats size up size down change color hide chords drawings
tab show chords e-chords YouTube Clip e-chords hide all tabs e-chords go to top tab