Miptrock

Viagem Antecipada

Miptrock

tabs

by  VELHO

save to print version add songbook text version e-mail correct tuner
chordsukulelecavacokeyboardtabbassdrumsharmonicaflute Guitar Pro
close

there isn't a video lesson for this song

chords

Viagem Antecipada

	  		e|--------------------------------------------| 
b|--------------------------------------------| 
G|-7-7-7--6-6-6--4-4-4--7-7-7--6-6-6--4-4-4---| 
D|--------------------------------------------|  1x 
A|-5-5-5--4-4-4--2-2-2--5-5-5--4-4-4--2-2-2---| 
E|--------------------------------------------| 


e|--------------------------------------------| 
b|--------------------------------------------| 
G|-7-7-7--6-6-6--4-4-4--7-7-7--6-6-6--9-9-9---| 
D|--------------------------------------------|  3x 
A|-5-5-5--4-4-4--2-2-2--5-5-5--4-4-4--7-7-7---| 
E|--------------------------------------------| 


e|--------------------------------------------| 
b|--------------------------------------------| 
G|-7-7-7--6-6-6--4-4-4--7-7-7--6-6-6--4-4-4---| 
D|--------------------------------------------|  1x 
A|-5-5-5--4-4-4--2-2-2--5-5-5--4-4-4--2-2-2---| 
E|--------------------------------------------| 

Bm          G 
Quem merece nunca esquece 
A          G 
Quem ajuda sempre lucra 
Bm          G 
Sai vivendo pra ajudar 
A          G   
Recompensa ou ganhar 

Bm 
Dizem ajudar 
G 
Dizem melhorar 
A       G  A* 
Eu avisei 
Bm 
Dizem ajudar 
G 
Dizem melhorar 
A       G  A*   (Bm G A G) 
Eu avisei 

Bm        G 
Esse jogo vou viver 
A          G  
Sem espada vou vencer 
Bm             G   
Remando contra sem parar 
A             G  
Certas coisas correndo 


Bm 
Dizem ajudar 
G 
Dizem melhorar 
A       G  A* 
Eu avisei 
Bm 
Dizem ajudar 
G 
Dizem melhorar 
A       G  A*    
Eu avisei 
  
   Bm        G  A       G 
e|----------------------0---0-----| 
b|-----0------------0-----0---0---| 
G|-0-2---2-0----0-2---2-----------|  2x 
D|-----------2--------------------| 
A|--------------------------------| 
E|--------------------------------| 

   Em 
e|--0---0---0---0---0----0---0---0---0---5---| 
b|----0---0---0---0--------0---0---0---0-----| 
G|-------------------------------------------| 
D|-------------------------------------------|  2x 
A|-------------------------------------------| 
E|-------------------------------------------| 

    Em 
e|--0---0---0---0---0-0---0---0---0---0---5-5---| 
b|----0---0---0---0---------0---0---0---0-------| 
G|----------------------------------------------| 
D|----------------------------------------------|  2x 
A|----------------------------------------------| 
E|----------------------------------------------| 

e|--------------------------------------------| 
b|--------------------------------------------| 
G|-7-7-7--6-6-6--4-4-4--7-7-7--6-6-6--4-4-4---| 
D|--------------------------------------------|  1x 
A|-5-5-5--4-4-4--2-2-2--5-5-5--4-4-4--2-2-2---| 
E|--------------------------------------------| 


Bm      G           A          G       
Eu avisei que foi assim que acabou 
Bm        G              A          G  
Tudo terminou e para o escuro eu voltei 
Bm      G           A          G    A* 
Eu avisei que foi assim que acabou 
Bm        G              A          G   
Tudo terminou e para o escuro eu voltei 

Bm 
Dizem ajudar 
G 
Dizem melhorar 
A       G  A* 
Eu avisei 
Bm 
Dizem ajudar 
G 
Dizem melhorar 
A       G  A*    
Eu avisei 

e|--------------------------------------------| 
b|--------------------------------------------| 
G|-7-7-7--6-6-6--4-4-4--7-7-7--6-6-6--4-4-4---| 
D|--------------------------------------------|  1x 
A|-5-5-5--4-4-4--2-2-2--5-5-5--4-4-4--2-2-2---| 
E|--------------------------------------------| 


e|--------------------------------------------| 
b|--------------------------------------------| 
G|-7-7-7--6-6-6--4-4-4--7-7-7--6-6-6--9-9-9---| 
D|--------------------------------------------|  3x 
A|-5-5-5--4-4-4--2-2-2--5-5-5--4-4-4--7-7-7---| 
E|--------------------------------------------| 

e|--------------------------------------------| 
b|--------------------------------------------| 
G|-7-7-7--6-6-6--4-4-4--7-7-7--6-6-6--4-4-4---| 
D|--------------------------------------------|  1x 
A|-5-5-5--4-4-4--2-2-2--5-5-5--4-4-4--2-2-2---| 
E|--------------------------------------------| 


e|--------------------------------------------| 
b|--------------------------------------------| 
G|-7-7-7--6-6-6--4-4-4--7-7-7--6-6-6--4-4-4---| 
D|--------------------------------------------|  1x 
A|-5-5-5--4-4-4--2-2-2--5-5-5--4-4-4--2-2-2---| 
E|--------------------------------------------| 


*opcional 

VELHO (BANDA VM's) 
		  

Full key step upFull key step up
Half key step upHalf key step up
Half key step downHalf key step down
Full key step downFull key step down
hide glossary

See also:

tabs Cachorro Grande - Sexperienced tabs Kid Abelha - Pintura íntima tabs Gram - você pode ir na janela tabs Dibob - 1x0eu tabs Emmerson Nogueira - Have You Ever Seen The Rain tabs KLB - Um anjo (solo)
e-chords

Other versions:

tabs Miptrock - Viagem Antecipada
auto scroll beats size up size down change color hide chords drawings
tab show chords e-chords YouTube Clip e-chords hide all tabs e-chords go to top tab

share