Mikky Ekko

home > Mikky Ekko

Smile Tab

Mikky Ekko

Difficulty: nolevelnolevel

by tarikike

tuner correct add songbook print version text version save to e-mail
chordsukulelecavacokeyboardtabbassdrumsharmonicsflute Guitar Pro
chords

Smile

Key:  Bb More
Smile Key FF
Smile Key F#F#
Smile Key GG
Smile Key G#G#(one step down)
Smile Key AA(half step down)
Smile Key BbBb(original key)
Smile Key BB(half step up)
Smile Key CC(one step up)
Smile Key C#C#
Smile Key DD
Smile Key D#D#
Smile Key EE
  		

     Bb    Cm/G  Gm    Eb    F 
e|---1-----3-----3-----6-----1-----------------------------------| 
B|---3-----4-----3-----8-----1-----------------------------------| 
G|---3-----5-----3-----8-----2-----------------------------------| 
D|---3-----5-----5-----8-----3-----------------------------------| 
A|---1-----3-----5-----6-----3-----------------------------------| 
E|---1-----3-----3-----6-----1-----------------------------------| 


---------------------------------------------------------------------------------------------------------------- 

Intro 
e|---1--1--1--1--1--1--1--1--------------------------------------| 
B|---------------------------------------------------------------| 
G|-3--3--3--3--3--3--3--3----------------------------------------| 
D|---------------------------------------------------------------| 
A|---------------------------------------------------------------| 
E|---------------------------------------------------------------| (x1) 


verse 1 
e|--1--1--1--1--1--1--1--1--1--1--1--1--1--1--1--1---------------| 
B|---------------------------------------------------------------| 
G|3--3--3--3--3--3--3--3--0--0--0--0-----------------------------| 
D|------------------------------------1--1--1--1-----------------| 
A|---------------------------------------------------------------| 
E|---------------------------------------------------------------| (x5) 

e|--1--1--1--1--1--1--1--1--1--1--1--1--1--1--1--1---------------| 
B|---------------------------------------------------------------| 
G|3--3--3--3--3--3--3--3--0--0--0--0-----------------------------| 
D|------------------------------------1--------------------------| 
A|---------------------------------------------------------------| 
E|---------------------------------------------------------------| (x1) 


Interlude 
Bb Cm/G Gm Eb F Gm Eb x1 


verse 2 
e|--1--1--1--1--1--1--1--1--1--1--1--1--1--1--1--1---------------| 
B|---------------------------------------------------------------| 
G|3--3--3--3--3--3--3--3--0--0--0--0-----------------------------| 
D|------------------------------------1--1--1--1-----------------| 
A|---------------------------------------------------------------| 
E|---------------------------------------------------------------| (x3) 

e|--1--1--1--1--1--1--1--1--1--1--1--1---------------------------| 
B|---------------------------------------------------------------| 
G|2--2--2--2--3--3--3--3---------------------------------- ------| 
D|------------------------1--1--1--1--1--------------------------| 
A|---------------------------------------------------------------| 
E|---------------------------------------------------------------| (x1) 


-Pause- 


Interlude 
Bb Cm/G Gm Eb F Gm Eb 


-Pause- 


Fill (played very softly) 
e|6b8r6--/18-----------------------------------------------------| 
B|---------------------------------------------------------------| 
G|---------------------------------------------------------------| 
D|---------------------------------------------------------------| 
A|---------------------------------------------------------------| 
E|---------------------------------------------------------------| 


Interlude 
Bb Cm/G Gm Eb F Gm Eb x2 


-pause- 


Outro 
e|---1--1--1--1--1--1--1--1--1--1--1--1--------------------------| 
B|---------------------------------------------------------------| 
G|-3--3--3--3--3--3--3--3--3--3--3--3--3-------------------------| 
D|---------------------------------------------------------------| 
A|---------------------------------------------------------------| 
E|---------------------------------------------------------------| (x1) 
	  

Full key step upFull key step up
Half key step upHalf key step up
Half key step downHalf key step down
Full key step downFull key step down
Search Paypal
auto scroll beats size up size down change color hide chords drawings
tab show chords e-chords YouTube Clip e-chords hide all tabs e-chords go to top tab