Michael W. Smith

home > Michael W. Smith

Agnus Dei Tab

Michael W. Smith

Difficulty: BeginnerBeginner

by b1+%26+b2

tuner correct add songbook print version text version save to e-mail
chordsukulelecavacokeyboardtabbassdrumsharmonicsflute Guitar Pro
chords

Agnus Dei

Year: 2001 - Album: Worship

  		G----------------------------------- 
D---------5----------------5--7-8--- 
A---4-5-7----7------4?5--7---------- 
   
   Aleluia          A Aleuia  
 
 
G ------------------------ 
D ----7-5-7-5--5----------- 
A -----------7---7-5-7------ 
 
 FOR OUR LORD, GOD ALMIGHTY, REIGNS  
 
 
 
G ----------------------------------- 
D---------5----------------5--7-8--- 
A---4-5-7----7------4?5--7---------- 
   
   Aleluia          A Aleuia  
 
 
G-----5--7------5--7-------------- 
D----8-------------------------- 
A------------------------------ 
   
     HO..O.LY    HO..O.LY   
 
G----8--7-------5---5-7-5--------5-7-5------ 
D------------8------------8-5------------8-5 
A--------------------------------------------- 
 
 
G-------------- 
D--5--7--8----- 
A------------- 
   A..A...men 
 
 
 
 
[email protected] 

	  

Search Paypal
auto scroll beats size up size down change color hide chords drawings
tab show chords e-chords YouTube Clip e-chords hide all tabs e-chords go to top tab