Michael Angelo

home > Michael Angelo

2x Again Tab

Michael Angelo

Difficulty: nolevelnolevel

by tercmoraes

tuner correct add songbook print version text version save to e-mail
chordsukulelecavacokeyboardtabbassdrumsharmonicsflute Guitar Pro
chords

2x Again

  		

  

Gtr I (E A D G B E) - 'solo' 
Gtr II (E A D G B E) - ' harmonized guitar' 
Gtr III (Eb Ab Db Gb Bb Eb) - 'powerchords' 


 Intro 
  Q=165 
  N.C. 
 2/2 
  Gtr I            Gtr I 
  E E +E  E +Q   S S S S   E E +E  E +H 
|------------------------|------------------| 
|------------------------|------------------| 
|------------------------|------------------| 
|-6h8-(8)-8-(8)--6h8p6---|-6h8-(8)-8-(8)----| 
|----------------------9-|------------------| 
|------------------------|------------------| 


                           |-3-| 
  E E E E +Q   E E   +E  E S S S E +H 
|------------------|----------------------| 
|------------------|----------------------| 
|------------------|----------------------| 
|--------------6---|----------------------| 
|-6h8-8-8-(8)----8-|-(8)-8-6h8p6----------| 
|------------------|-------------9-(9)----| 


  E E +E  E +E  E S S S S   E E E E +Q   S S S S 
|-------------------------|----------------------| 
|-------------------------|----------------------| 
|---------6-(6)-----------|----------------------| 
|-6h8-(8)-------8-6h8p6---|-6h8-6h8-(8)--6h8p6---| 
|-----------------------9-|--------------------9-| 
|-------------------------|----------------------| 


                            ~~~~ 
  E E +E  E +H       E  E  +H. 
|------------------|--------------| 
|------------------|--------------| 
|------------------|-1s13-(13)----| 
|-6-6-(6)-6-(6)----|--------------| 
|------------------|--------------| 
|------------------|--------------| 


                   Section 1 
  N.C. 
         ~~~~ 
                                             |-3--| 
  E  E  +H.          Q  Q  Q  E E   +H.      E  E E   H.      Q 
|-4s16-(16)------||---------------|-----------------|------------| 
|----------------||---------------|-----------------|------------| 
|----------------||-/8--8--8--8-8-|-(8)------8h10p8-|-7----------| 
|----------------||---------------|-----------------|---------8--| 
|----------------||---------------|-----------------|------------| 
|----------------||---------------|-----------------|------------| 


  N.C. 
                                   ~~~~~~~ 
  Q  Q  Q  E  E    +E  E  H     E  E 
|---------------|------------------------| 
|---------------|------------------------| 
|-8--8--7-------|-----------------10b12==| 
|----------8-10-|-(10)p8-----------------| 
|---------------|--------10----10--------| 
|---------------|------------------------| 


 ~~~~~~~~~~~~~~~ 
   +H      +Q     E E    E E E S S  E E E  E 
|---------------------|----------------------| 
|---------------------|----------------------| 
|-(10)----(10)r--10-8-|-10-8-7-8p7----7------| 
|---------------------|------------10---8-10-| 
|---------------------|----------------------| 
|---------------------|----------------------| 


  N.C. 
                                              |-3--| 
   E E E  E E E E E   Q  Q  Q  E E   +H.      E  E E   H.      Q 
|-------------------|--------------|-----------------|------------| 
|-------------------|--------------|-----------------|------------| 
|-------------------|----8--8--8-8-|-(8)------8h10p8-|-7----------| 
|----8--------------|--------------|-----------------|---------8--| 
|-10---8-10-6-8-6-5-|-6------------|-----------------|------------| 
|-------------------|--------------|-----------------|------------| 


  N.C. 
                    ~~~~~~~~~~~~~~~~~ 
  Q  Q  Q  E  E    +W            +H.      E E   +E  S S  E E Q.  S S 
|---------------|-------------|---------------|-----------------------| 
|---------------|-------------|---------------|-----------------------| 
|-8--8--7-------|-------------|-----------7-7-|-(7)-8-7---------------| 
|----------8-10-|-(10)--------|-(10)----------|---------10-8-6h==8p6--| 
|---------------|-------------|---------------|-----------------------| 
|---------------|-------------|---------------|-----------------------| 


                          Section 2 
  ~~~~~~~~~~~~~~~ 
  W          +W            Q  Q  Q   E  E   H.      E  E 
|----------|------------||----------------|---------------| 
|----------|------------||----------------|---------------| 
|----------|------------||----------------|---------------| 
|-4--------|-(4)--------||-8--8--8--10-11-|-8-------8-10--| 
|----------|------------||----------------|---------------| 
|----------|------------||----------------|---------------| 


  N.C. 
            |--3--|                                   |-3-| 
   H.       E  E  E    W           +Q   E E E E E E   Q Q Q Q.   S S 
|-------------------|-----------|-------------------|-----------------| 
|-------------------|-----------|-------------------|-----------------| 
|-------------------|-----------|-------------------|-----------------| 
|-11-------13-11-10-|-----------|-------8-6---------|-----------------| 
|-------------------|-11--------|-(11)------8-6-4-6-|-8-6-4-----------| 
|-------------------|-----------|-------------------|-------6----8p6--| 


  N.C. 
            5/4                     4/4 
  W          E S S E E E E E E E E   Q  Q  Q  E E   +Q   E E +Q   Q 
|----------|-----------------------|--------------|-------------------| 
|----------|-----------------------|--------------|-------------------| 
|----------|-5-6p5-----------------|--------------|-------------------| 
|----------|-------8-6-------------|----8--8--8-8-|-(8)--6------------| 
|----------|-----------8-6-4-------|--------------|--------9-(9)--9---| 
|-4--------|-----------------8-6-4-|-6------------|-------------------| 


                                |-3-| 
  Q  E E E E Q    +E  E E E E E E E E    E E E E Q  E E   +Q   E E +Q   E E 
|---------------|---------------------|-----------------|--------------------| 
|---------------|---------------------|-----------------|--------------------| 
|-6--6-6-8-8-5--|-(5)-------5-6-8p6p5-|-/6--------------|--------------------| 
|---------------|-----8-6-8-----------|----8--------8-8-|-(8)--6--------6----| 
|---------------|---------------------|------8----------|--------9-(9)----6--| 
|---------------|---------------------|--------9-6------|--------------------| 


  N.C. 
  +E  H.      +E    +H.      E E    Q   E  E  Q   E  E    +Q    E  E  +Q    Q 
|-----------------|--------------|---------------------|-----------------------| 
|-----------------|------------1s|=11--11-11-11--11-11-|-(11)------------------| 
|-----------------|--------------|---------------------|-------13-11-(11)--11--| 
|-----------------|--------------|---------------------|-----------------------| 
|-(6)-8-------(8)-|-(8)----------|---------------------|-----------------------| 
|-----------------|--------------|---------------------|-----------------------| 


  N.C. 
                                             |--3--| 
   Q   E  E  E  E  Q     +E   E  E  E  E  E  E  E  E    E  E  E  E  Q   E  E 
|---------------------|------------------------------|------------------------| 
|-14--14-14-16-16-13--|-(13)----------13-14-16-14-13-|-14---------------------| 
|---------------------|------15-13-15----------------|----15-----------15-15--| 
|---------------------|------------------------------|-------15---------------| 
|---------------------|------------------------------|----------16-13---------| 
|---------------------|------------------------------|------------------------| 


  N.C. 
   Q   E  E  +Q    E  E    +E   E  +H. 
|-----------------------|-------------------| 
|-----------------------|-------------------| 
|-15--13----------13----|-------------------| 
|--------16-(16)-----13-|-(13)-15-(15)------| 
|-----------------------|-------------------| 
|-----------------------|-------------------| 


                                                       Section 3 
  Bbm 
               T                                         ~~ 
   |-----5-----|  |------6-------|      |-----5-----| 
   S  S  S  S  S  S  S  S  S  S  S  Q   S  S  S  S  S    W 
|-------13h18-21p18p13--------------------------------|-13----| 
|----14----------------14--------------------------14-|-------| 
|-15----------------------15--------------------15----|-------| 
|----------------------------15--------------15-------|-------| 
|-------------------------------16-13--13h16----------|-------| 
|-----------------------------------------------------|-------| 


  N.C. 
                                     |-----5-----|  |-----5-----| 
   +Q    E  E  +Q    E  E    +H      S  S  S  S  S  S  S  S  S  S 
|-(13)--------------------|------------------11-13-14-13-11-------| 
|-------14----------14----|---------11-13-14----------------14-11-| 
|----------13-(13)-----15-|-(15)----------------------------------| 
|-------------------------|---------------------------------------| 
|-------------------------|---------------------------------------| 
|-------------------------|---------------------------------------| 


                                 ~~ 
   |-----5-----|  |-----5-----| 
   S  S  S  S  S  S  S  S  S  S  H 
|----------13-14----------14-16-18----| 
|-13-14-16-------14-16-18-------------| 
|-------------------------------------| 
|-------------------------------------| 
|-------------------------------------| 
|-------------------------------------| 


  N.C. 
   E  E  E  E  E  E  E  E    +Q    E  E  +Q    E  E 
|-13-14-13----13----------|-------------------------| 
|----------16----16-14-14-|-(14)--16----------14-14-| 
|-------------------------|----------13-(13)--------| 
|-------------------------|-------------------------| 
|-------------------------|-------------------------| 
|-------------------------|-------------------------| 


                     |------6-------| 
   +Q    E  E  +Q    S  S  S  S  S  S 
|----------------------------14-16-18-| 
|-(14)--16----------14-16-18----------| 
|----------15-(15)--------------------| 
|-------------------------------------| 
|-------------------------------------| 
|-------------------------------------| 


   |------6-------|  |-----5-----|  |-----5-----| 
   S  S  S  S  S  S  S  S  S  S  S  S  S  S  S  S  Q 
|-19-18-16-------------------16-18----------18-19-21--| 
|----------19-18-16-16-18-19-------18-19-21-----------| 
|-----------------------------------------------------| 
|-----------------------------------------------------| 
|-----------------------------------------------------| 
|-----------------------------------------------------| 


   ~~~~~ 
   H.         E  E    Q   E  E  +Q    E  E 
|-21b23------13-14-|-13---------------------| 
|------------------|-----14----------14-----| 
|------------------|--------13-(13)-----15--| 
|------------------|------------------------| 
|------------------|------------------------| 
|------------------|------------------------| 


  N.C. 
           |-----5-----|  |------6-------| 
   +H      S  S  S  S  S  S  S  S  S  S  S 
|------------------------------------------| 
|------------------------------------------| 
|-(15)----18-15-16-18-16-15----------------| 
|---------------------------18-16-15-16-18-| 
|------------------------------------------| 
|------------------------------------------| 


   |------6-------|  |------6-------|  |-----5-----|  |------6-------| 
   S  S  S  S  S  S  S  S  S  S  S  S  S  S  S  S  S  S  S  S  S  S  S 
|-------------------16-18-19-18-16--------------------------------------| 
|----------16-18-19----------------19-18-16-----------------------------| 
|-15-16-18----------------------------------18-16-15--------------------| 
|----------------------------------------------------18-16-15-----------| 
|-------------------------------------------------------------18-16-15--| 
|-----------------------------------------------------------------------| 


   ~~~~~ 
   Q.     S  S  E  E  E  E    S  S  S  S  E  E  E  E  E  E 
|-21b23-----18-16-18-14-16-|-14h16p14----14-16-18-16-14----| 
|--------------------------|----------18----------------18-| 
|--------------------------|-------------------------------| 
|--------------------------|-------------------------------| 
|--------------------------|-------------------------------| 
|--------------------------|-------------------------------| 


   Q   E  E  +Q    E  E    +H      E  E  +Q 
|-----------------21----|-----------------------| 
|-19--18-19-(19)-----19-|-(19)----19-18-(18)----| 
|-----------------------|-----------------------| 
|-----------------------|-----------------------| 
|-----------------------|-----------------------| 
|-----------------------|-----------------------| 


 Section 4 
  N.C. 
                                 |--3--| 
   Q   Q   Q   E  E    +H.       E  E  E    H.       Q     Q   Q   Q   E  E 
|-------------------|--------------------|--------------|-------------------| 
|-16--16--16--16-16-|-(16)------16h18p16-|-15-----------|-16--16--15-----13-| 
|-------------------|--------------------|----------15--|-------------15----| 
|-------------------|--------------------|--------------|-------------------| 
|-------------------|--------------------|--------------|-------------------| 
|-------------------|--------------------|--------------|-------------------| 


                                           |--3--|  |--------7--------| 
   +E   E  H     E  E        +Q    +Q.     S  S  S  S  S  S  S  S  S  S 
|------------------13b15==|=(13)--(13)r---------------------------------| 
|-(13)--------------------|---------------------------------------------| 
|------15-12----12--------|------------------------12-13-15-13-12-------| 
|-------------------------|---------------12-13-15----------------15-13-| 
|-------------------------|---------------------------------------------| 
|-------------------------|---------------------------------------------| 


  N.C. 
   |------6-------|  |-----5-----|  |------6-------|  |-----5-----| 
   S  S  S  S  S  S  S  S  S  S  S  S  S  S  S  S  S  S  S  S  S  S 
|----------------------------------------------------------13-15-13-| 
|-------------------13-15-16-15-13----------------13-15-16----------| 
|----------12-13-15----------------15-13-12-13-15-------------------| 
|-12-13-15----------------------------------------------------------| 
|-------------------------------------------------------------------| 
|-------------------------------------------------------------------| 


   |-----5-----|  |-----5-----|  |-----5-----|  |-----5-----| 
   S  S  S  S  S  S  S  S  S  S  S  S  S  S  S  S  S  S  S  S 
|-16-13-18-16-15-------------------15-16-18----------16-18-20-| 
|----------------18-16-15-15-16-18----------16-18-20----------| 
|-------------------------------------------------------------| 
|-------------------------------------------------------------| 
|-------------------------------------------------------------| 
|-------------------------------------------------------------| 


  N.C. 
   ~~~ 
   H.      Q     H     Q   E  E    +E   E  H     Q 
|-20----------|-----------------|-------------------| 
|----------1S=|=16----16--16-16-|-(16)-15-15--------| 
|-------------|-----------------|---------------15--| 
|-------------|-----------------|-------------------| 
|-------------|-----------------|-------------------| 
|-------------|-----------------|-------------------| 


                                                     Ab7 
                                                      |---5----| 
   Q   Q   Q   E  E    +E   E  +H.          +H.       S  S S S S 
|-------------------|-------------------||---------------------8-| 
|-16--16--15-----13-|-(13)-13-(13)------||-(13)--------------9---| 
|-------------15----|-------------------||-----------------8-----| 
|-------------------|-------------------||--------------10-------| 
|-------------------|-------------------||-----------11----------| 
|-------------------|-------------------||-----------------------| 


  N.C. 
   T  T  T 
   |--3--|         |---5---| |---5---| 
   E  E  E S S S S S S S S S S S S S S   S S S S S S S S S S S S S S S S 
|-14s16s14-8p4-8p4---------------------|----------------------------------| 
|------------------4-------------------|----------------------------------| 
|--------------------5-----------------|----------------------------------| 
|----------------------6-----------6---|----------------------------------| 
|------------------------8p6---6h9---9p|=6-9p6---6------------------------| 
|----------------------------8---------|-------8---8p6-8p6s4-6-8-6p4-3-2--| 


                      Section 5 
  N.C.      Bbm        Bbm 
  \3 
             |--3--|    |--------7--------| 
  H.      E  S  S  S    S  S  S  S  S  S  S  H     S  S  S  S 
|-----------------18-|-21p18-------------------------------13-| 
|--------------18----|-------18-------------------------14----| 
|-----------18-------|----------18-------------------15-------| 
|--------------------|-------------16-------------15----------| 
|--------------------|----------------16----------------------| 
|-0------------------|-------------------21-18----------------| 


   ~~~~~ 
   H.         E     E    H     E     S  S  Q 
|-16b18------18b21r18-|-16-----------------------| 
|---------------------|-------16b18-16-14-16b18--| 
|---------------------|--------------------------| 
|---------------------|--------------------------| 
|---------------------|--------------------------| 
|---------------------|--------------------------| 


   H.       S  S  S  S    E  E  E  E  E  E  E  E 
|----------------------|-------------------------| 
|-16-------14h16p14p13-|-14----------------------| 
|----------------------|----15-17-13-15----13----| 
|----------------------|----------------15----13-| 
|----------------------|-------------------------| 
|----------------------|-------------------------| 


   E  E  E  E  E  E  E  E    Q      E  E  +Q    E  E 
|-------------------------|--------------------------| 
|----------------13-14-16-|-16b18--16-16-(16)--14-16-| 
|-------------------------|--------------------------| 
|-15----13----------------|--------------------------| 
|----16----15-16----------|--------------------------| 
|-------------------------|--------------------------| 


  N.C.      Bbm 
             |------6-------| 
   +H.       S  S  S  S  S  S 
|--------------------------13h| 
|-(16)------------------14----| 
|--------------------15-------| 
|-----------------15----------| 
|-----------13h16-------------| 
|-----------------------------| 


  Bbm 
      T                                      T  T  T 
   |--------7--------|  |-----5-----|  |-----5-----|  |-----5-----| 
   S  S  S  S  S  S  S  S  S  S  S  S  S  S  S  S  S  S  S  S  S  S 
|-18-21p18----------------------------13-18-21s23s21-13-------------| 
|----------14----------------------14-------------------14----------| 
|-------------15----------------15-------------------------15-------| 
|----------------15----------15-------------------------------15----| 
|-------------------16-13h16-------------------------------------16-| 
|-------------------------------------------------------------------| 


  Bbm 
   |------6-------| 
   S  S  S  S  S  S  E  E      +H       E  E      +E   E  E     E  E  E 
|----------------13-16-16b18==(16)----|---16b18==(16)r13-------13-16--------| 
|-------------14----------------------|------------------16b18-------16b18==| 
|----------15-------------------------|-------------------------------------| 
|-------15----------------------------|-------------------------------------| 
|-13h16-------------------------------|-------------------------------------| 
|-------------------------------------|-------------------------------------| 


            |--3--|                    |-----5-----|  |-----5-----|  |-----5-----| 
   +Q    E  S  S  S  +H       E  S  S  S  S  S  S  S  S  S  S  S  S  S  S  S  S  S 
|---------------------------|------------13----------------13----------------13-16--| 
|-(16)r----16p14h16-(16)----|---14-16-17----17-16-14-16-17----17-16-14-16-17--------| 
|---------------------------|-------------------------------------------------------| 
|---------------------------|-------------------------------------------------------| 
|---------------------------|-------------------------------------------------------| 
|---------------------------|-------------------------------------------------------| 


  N.C. 
   E  E      +E    E      +Q    +E    E    E  E  E     S  S  +E   E  E     S  S 
|-16-16b18==(16)r-16b18==(16)--(16)r----|-13-16-------16-13-(13)-16-------------| 
|------------------------------------17-|-------17b18---------------17b18-14-16-| 
|---------------------------------------|---------------------------------------| 
|---------------------------------------|---------------------------------------| 
|---------------------------------------|---------------------------------------| 
|---------------------------------------|---------------------------------------| 


                                 Section 6 
   E  E  S  S  S  S  E  E  E  E    H.      Q 
|-------------------------------|----------1s===| 
|-16-14-14-16-14-13-------------|---------------| 
|-------------------15-13-------|---------------| 
|-------------------------15-14-|-13------------| 
|-------------------------------|---------------| 
|-------------------------------|---------------| 


   ~~~           ~~~~~~~~~~~~~~~~~~~~~~~~~~~~~~~~~~~~~~~~~~~ 
   H.      Q     H     +E   E      +Q      +E    E      +H      +Q 
|-13-------2s=|=14----(14)-16b18==(16)--|-(16)r-19b21==(19)----(19)r--| 
|-------------|-------------------------|-----------------------------| 
|-------------|-------------------------|-----------------------------| 
|-------------|-------------------------|-----------------------------| 
|-------------|-------------------------|-----------------------------| 
|-------------|-------------------------|-----------------------------| 


  Ebm 
   |--------6--------|  |-----6-----|  |--------6--------|  |-----6-----| 
   S  S  S  S  S  S  S  S  S  S  S  S  S  S  S  S  S  S  S  S  S  S  S  S 
|----------------18-23p18----------------------------18-23p18--------------| 
|-------------19----------19----------------------19----------19-----------| 
|----------20----------------20----------------20----------------20--------| 
|-------20----------------------20----------20----------------------20-----| 
|-18h21----------------------------21-18h21----------------------------21--| 
|--------------------------------------------------------------------------| 


  Db 
   |------6-------|  |------6-------|  |------6-------|  |------6-------| 
   S  S  S  S  S  S  S  S  S  S  S  S  S  S  S  S  S  S  S  S  S  S  S  S 
|----------------16-21p16----------------------------16-21p16-------------| 
|-------------18----------18----------------------18----------18----------| 
|----------18----------------18----------------18----------------18-------| 
|-------18----------------------18----------18----------------------18----| 
|-16h20----------------------------20-16h20----------------------------20-| 
|-------------------------------------------------------------------------| 


  Gb 
   |-----5-----|  |-----5-----|  |-----5-----|  |-----5-----| 
   S  S  S  S  S  S  S  S  S  S  S  S  S  S  S  S  S  S  S  S 
|-------------18-21p18----------------------18-21p18----------| 
|----------19----------19----------------19----------19-------| 
|-------18----------------18----------18----------------18----| 
|----20----------------------20----20----------------------20-| 
|-21----------------------------21----------------------------| 
|-------------------------------------------------------------| 


  Gb                                     Ebm 
   |-----5-----|  |------6-------|        |------6-------| 
   S  S  S  S  S  S  S  S  S  S  S  +Q    S  S  S  S  S  S 
|-------------18-21p18----------------------------------18-| 
|----------19----------19----------------------------19----| 
|-------18----------------18----------------------20-------| 
|----20----------------------20----------------20----------| 
|-21----------------------------21-(21)--18h21-------------| 
|----------------------------------------------------------| 


                          Db 
                     ~~ 
   |------6-------|        |------6-------| 
   S  S  S  S  S  S  H     S  S  S  S  S  S 
|-23p18----------------------------------16--| 
|-------19----------------------------18-----| 
|----------20----------------------18--------| 
|-------------20----------------18-----------| 
|----------------21-18----16h20--------------| 
|--------------------------------------------| 


  Db                      Gb                                    Gb 
                     ~~                                    ~~ 
   |------6-------|        |-----5-----|    |-----5-----|        |-----5-----| 
   S  S  S  S  S  S  H     S  S  S  S  S    S  S  S  S  S  H     S  S  S  S  S 
|-21p16-------------------------------18-|-21p18----------------------------18-| 
|-------18-------------------------19----|-------19----------------------19----| 
|----------18-------------------18-------|----------18----------------18-------| 
|-------------18-------------20----------|-------------20----------20----------| 
|----------------20-16----21-------------|----------------21----21-------------| 
|----------------------------------------|-------------------------------------| 


  Gb                Db                                  Ebm 
                                       T 
   |------6-------|  |------6-------|  |------6-------|  |--------7--------| 
   S  S  S  S  S  S  S  S  S  S  S  S  S  S  S  S  S  S  S  S  S  S  S  S  S 
|-21p18-------------------------13h16-21p16p13-------------------------18-23p| 
|-------19-------------------14----------------14-------------------19-------| 
|----------18-------------13----------------------13-------------20----------| 
|-------------20-------15----------------------------15-------20-------------| 
|----------------21-16----------------------------------18h21----------------| 
|----------------------------------------------------------------------------| 


                        ~~    PM| 
   |--------7--------| 
   S  S  S  S  S  S  S  H     E  E 
|-18--------------------------------| 
|----19-----------------------------| 
|-------20--------------------------| 
|----------20-----------------------| 
|-------------21-18-----------------| 
|-------------------18s11----11-11--| 


  N.C.                Gb 
   ~~    PM------|                                                   ~~~~~~~~ 
                       |------6-------|       |------6-------| 
   H     E  E  E  E    S  S  S  S  S  S  +E   S  S  S  S  S  S  +E   Q 
|-------------------|-21p18----------18-(18)-21p18--------------------------| 
|-------------------|-------19----19---------------19---------------18b19===| 
|-------------------|----------18---------------------18--------------------| 
|-------------------|------------------------------------20-----------------| 
|-------------11----|---------------------------------------21-(21)---------| 
|-13----13-14----13-|-------------------------------------------------------| 


 ~~~~~~ 
   +Q    +Q     E     E  +Q 
|------------------------------| 
|-(18)--(18)r--18b19-18-(18)---| 
|------------------------------| 
|------------------------------| 
|------------------------------| 
|------------------------------| 


 Section 7 
                                 |--3--| 
   Q   Q   Q   E  E    +H.       E  E  E    H.       S  S  S  S 
|-------------------|--------------------|-------------15-18-17-| 
|-16--16--16--16-16-|-(16)------16h18p16-|-15-------18----------| 
|-------------------|--------------------|----------------------| 
|-------------------|--------------------|----------------------| 
|-------------------|--------------------|----------------------| 
|-------------------|--------------------|----------------------| 


   S  S  S  S  S  S  S  S  S  S  S  S  S  S  S  S 
|-16-15---------------------------------------------| 
|-------18-15-16-15----16-15----15------------------| 
|-------------------17-------17----17-16-15----15---| 
|-------------------------------------------17------| 
|---------------------------------------------------| 
|---------------------------------------------------| 


  N.C. 
   H     +E   E  E  E        +E    S  S  H. 
|-------------------------|----------------------| 
|------------15-16-18b20==|=(18)r-18p16-18-------| 
|-17----(17)--------------|----------------------| 
|-------------------------|----------------------| 
|-------------------------|----------------------| 
|-------------------------|----------------------| 


     |--3--|  |--3--|  |--3--|  |--3--|    |--3--|  |--3--|  |--3--|  |--3--| 
  E  S  S  S  E  E  E  E  E  E  E  E  E    E  E  E  E  E  E  E  E  E  E  E  E 
|------------15-18-17-16-15----15-------|-------------------------------------| 
|---------15----------------18----16-18-|----16-------------------------------| 
|------15-------------------------------|-17----15-17-13-15-12-13----12-------| 
|---17----------------------------------|-------------------------15----13-15-| 
|---------------------------------------|-------------------------------------| 
|---------------------------------------|-------------------------------------| 


  N.C. 
                            |-3-| 
   E  E  E  E  E  E  Q    E S S S  E  E      +H 
|-----------------------|-------8-11-11b13==(11)----| 
|-----------------------|-----8---------------------| 
|-12----------12--------|---8-----------------------| 
|----15-13-15----13-----|---------------------------| 
|-------------------15--|---------------------------| 
|-----------------------|---------------------------| 


   +E    S S  E    E  E  E      +E   +E      E  E  E  E  a  E  E  E  E 
|-(11)r-----------------------------------|-11-10-----------------------| 
|-------11-8-------8-11-------------------|-------11-13-----------------| 
|------------10b12------10b12==(10)-(10)r-|-------------12p10----10-12--| 
|-----------------------------------------|-------------------13--------| 
|-----------------------------------------|-----------------------------| 
|-----------------------------------------|-----------------------------| 


                                                            2/4 
                                    \5 
               ~~~~~~~~~~~~ 
   E  E  E  E  H       +W           W           +W           +H 
|-------------------|-------------|-----------|------------|--------| 
|-------------------|-------------|-----------|------------|--------| 
|-------------------|-------------|-----------|------------|--------| 
|-13-12-10----10----|-(10)--------|-----------|------------|--------| 
|----------13-------|-------------|-0---------|-(0)--------|-(0)----| 
|-------------------|-------------|-----------|------------|--------| 


              Interlude 
  N.C. 
              4/4 
  Gtr I 
  E  E  E  E    Q  E  E  +E   E E +E     E  E  +Q   E  E  E  E 
|------------|------------------------|------------------------| 
|---------11-|-12--9-11-(11)----9-(9)-|---------------------11-| 
|-8-10-11----|---------------11-------|-10-11-(11)--8-10-11----| 
|------------|------------------------|------------------------| 
|------------|------------------------|------------------------| 
|------------|------------------------|------------------------| 
| 
| Gtr II 
| E  E  E  E    Q  E  E  +E   E E +E     E  E  +Q   E  E  E  E 
|------------|------------------------|------------------------| 
|------------|------------------------|------------------------| 
|----------6-|--8-----6--(6)----------|----------------------6-| 
|----6--8----|-----9----------8-9-(9)-|--6--8--(8)-----6--8----| 
|-9----------|------------------------|-------------9----------| 
|------------|------------------------|------------------------| 


   Q  E  E  +E   E E  E    S  S E +Q   E  E  E  E 
|-----------------------|---------------------------| 
|-12--9-11-(11)----9----|----------------------11---| 
|---------------11---10-|-11-10-8-(8)--8-10-11------| 
|-----------------------|---------------------------| 
|-----------------------|---------------------------| 
|-----------------------|---------------------------| 
| 
|  Q  E  E  +E   E E  E    S  S E +Q   E  E  E  E 
|-----------------------|---------------------------| 
|-----------------------|---------------------------| 
|--8-----6--(6)---------|-----------------------6---| 
|-----9----------8-9--6-|--8--6-----------6--8------| 
|-----------------------|-------9-(9)--9------------| 
|-----------------------|---------------------------| 


  N.C. 
   Q  E  E  +E   E E +E     E  E  +Q   E  E  E  E 
|------------------------|------------------------| 
|-12--9-11-(11)----9-(9)-|---------------------11-| 
|---------------11-------|-10-11-(11)--8-10-11----| 
|------------------------|------------------------| 
|------------------------|------------------------| 
|------------------------|------------------------| 
| 
|  Q  E  E  +E   E E +E     E  E  +Q   E  E  E  E 
|------------------------|------------------------| 
|------------------------|------------------------| 
|--8-----6--(6)----------|----------------------6-| 
|-----9----------8-9-(9)-|--6--8--(8)-----6--8----| 
|------------------------|-------------9----------| 
|------------------------|------------------------| 


   Q  E  E  +E   E E  E    S  S E +Q   E  E  E  E 
|-----------------------|--------------------------| 
|-12--9-11-(11)----9----|----------------------11--| 
|---------------11---10-|-11-10-8-(8)--8-10-11-----| 
|-----------------------|--------------------------| 
|-----------------------|--------------------------| 
|-----------------------|--------------------------| 
| 
|  Q  E  E  +E   E E  E    S  S E +Q   E  E  E  E 
|-----------------------|--------------------------| 
|-----------------------|--------------------------| 
|--8-----6--(6)---------|-----------------------6--| 
|-----9----------8-9--6-|--8--6-----------6--8-----| 
|-----------------------|-------9-(9)--9-----------| 
|-----------------------|--------------------------| 


  N.C. 
   Q  E  E  +E   E E +E     E  E  +Q   E  E  E  E 
|------------------------|------------------------| 
|-12--9-11-(11)----9-(9)-|---------------------11-| 
|---------------11-------|-10-11-(11)--8-10-11----| 
|------------------------|------------------------| 
|------------------------|------------------------| 
|------------------------|------------------------| 
| 
|  Q  E  E  +E   E E +E     E  E  +Q   E  E  E  E 
|------------------------|------------------------| 
|------------------------|------------------------| 
|--8-----6--(6)----------|----------------------6-| 
|-----9----------8-9-(9)-|--6--8--(8)-----6--8----| 
|------------------------|-------------9----------| 
|------------------------|------------------------| 


   Q  E  E  +E   E E  E    S  S E +Q   E  E  E  E 
|-----------------------|--------------------------| 
|-12--9-11-(11)----9----|----------------------11--| 
|---------------11---10-|-11-10-8-(8)--8-10-11-----| 
|-----------------------|--------------------------| 
|-----------------------|--------------------------| 
|-----------------------|--------------------------| 
| 
|  Q  E  E  +E   E E  E    S  S E +Q   E  E  E  E 
|-----------------------|--------------------------| 
|-----------------------|--------------------------| 
|--8-----6--(6)---------|-----------------------6--| 
|-----9----------8-9--6-|--8--6-----------6--8-----| 
|-----------------------|-------9-(9)--9-----------| 
|-----------------------|--------------------------| 


  N.C. 
   Q  E  E  +E   E E +E     E  E  +Q   E  E  E  E 
|------------------------|------------------------| 
|-12--9-11-(11)----9-(9)-|---------------------11-| 
|---------------11-------|-10-11-(11)--8-10-11----| 
|------------------------|------------------------| 
|------------------------|------------------------| 
|------------------------|------------------------| 
| 
|  Q  E  E  +E   E E +E     E  E  +Q   E  E  E  E 
|------------------------|------------------------| 
|------------------------|------------------------| 
|--8-----6--(6)----------|----------------------6-| 
|-----9----------8-9-(9)-|--6--8--(8)-----6--8----| 
|------------------------|-------------9----------| 
|------------------------|------------------------| 


                          Gb 
                           |------6-------|  |------6-------| 
   Q  E  E  +E   E E  E    S  S  S  S  S  S  S  S  S  S  S  S  H 
|-----------------------|-23p18----------18-23p18-------------------| 
|-12--9-11-(11)----9----|-------19----19----------19----------------| 
|---------------11---10-|----------20----------------20-------------| 
|-----------------------|-------------------------------20----------| 
|-----------------------|----------------------------------21-18----| 
|-----------------------|-------------------------------------------| 
| 
|  Q  E  E  +E   E E  E    W 
|-----------------------|-------------------------------------------| 
|-----------------------|-------------------------------------------| 
|--8-----6--(6)---------|-------------------------------------------| 
|-----9----------8-9--6-|-------------------------------------------| 
|-----------------------|-------------------------------------------| 
|-----------------------|-------------------------------------------| 


                                     Section 8 
   ~~~~~                      ~~~~~~~~~~~~~~~~~~~ 
   W              E  E  E  E  H        W 
|-16b18--------|-16-14-16-14-16----||-----------| 
|--------------|-------------------||-13--------| 
|--------------|-------------------||-----------| 
|--------------|-------------------||-----------| 
|--------------|-------------------||-----------| 
|--------------|-------------------||-----------| 


 ~~~~~~~~~~~~~~~~~~~~                 ~~~ 
                           |--3--| 
   W              H.       E  E  E    H.       E  E 
|--------------|-------------------|-------------------| 
|-16b18--------|-16-------16-14-13-|-------------14----| 
|--------------|-------------------|-15-------15-------| 
|--------------|-------------------|-------------------| 
|--------------|-------------------|-------------------| 
|--------------|-------------------|-------------------| 


  N.C. 
               ~~~~~~~~~~~~~~~~~ 
                                      |--3--| 
   E  E  E  E  H           +H.        E  E  E 
|-----------------------|------------13-15-13-| 
|-13----------16b18=====|=(16)r---------------| 
|----15-13--------------|---------------------| 
|----------15-----------|---------------------| 
|-----------------------|---------------------| 
|-----------------------|---------------------| 


                                   ~~~                   ~~~~~ 
                                              |--3--| 
   E  E  E  E  E  E  E     S  S    H.      E  S  S  S    H.         E  E 
|-------------------------------|------------------13-|-16b18------18-20-| 
|-16-13-------------------------|---------------14----|------------------| 
|-------15-13-12----15b17-15p13-|-15---------15-------|------------------| 
|----------------15-------------|---------------------|------------------| 
|-------------------------------|---------------------|------------------| 
|-------------------------------|---------------------|------------------| 


   E  E  E  E  +H          E  S  S  S  S  S  S  S  S  S  S  S  S  S  S 
|-21-20-18---------------|------------18-21-20-19-18----18-------------| 
|----------21-(21)b23----|---19-20-21----------------21----21-20-19-18-| 
|------------------------|---------------------------------------------| 
|------------------------|---------------------------------------------| 
|------------------------|---------------------------------------------| 
|------------------------|---------------------------------------------| 


   S  S  S  S  S  S  S  S  S  S  S  S  S  S  S  S 
|--------------------------------------------------| 
|----18-19-18----18----------------------------16--| 
|-20----------20----20-18-17----17----15-17-18-----| 
|----------------------------20----18--------------| 
|--------------------------------------------------| 
|--------------------------------------------------| 


  N.C. 
   S  S  S  S  S  S  S  S  S  S  S  S  S  S  S  S 
|-------------18-16-20-18-16----------------------| 
|-18----18-16----------------20-19-18-17-18-------| 
|----15-------------------------------------20-19-| 
|-------------------------------------------------| 
|-------------------------------------------------| 
|-------------------------------------------------| 


   S  S  S  S  S  S  S  S  S  S  S  S  Q 
|---------------------------------------------| 
|----------------------------18-19-21-21b23---| 
|-18-17----17-------17-18-20------------------| 
|-------20----18-20---------------------------| 
|---------------------------------------------| 
|---------------------------------------------| 


                                         ~~~ 
   S  +S      +Q    E  E  Q      S  S    H.      E E 
|------------------13-----------------|--------------| 
|-21-(21)b23r(21)-----16-16b18--16p14-|-16---------1S| 
|-------------------------------------|--------------| 
|-------------------------------------|--------------| 
|-------------------------------------|--------------| 
|-------------------------------------|--------------| 


                                           ~~~~ 
   E  E  +E   E  +Q   S  S S S   Q  E  E  +H 
|------------------------------|-----------------| 
|-11-11-(11)-11-(11)--9h11p9-7-|-9--9h11-(11)----| 
|------------------------------|-----------------| 
|------------------------------|-----------------| 
|------------------------------|-----------------| 
|------------------------------|-----------------| 


  N.C.                           Db 
                                                    T 
                                  |------6-------|  |--------7--------| 
  E  E  E  E  +E  E E  E    +Q    S  S  S  S  S  S  S  S  S  S  S  S  S  E  E 
|------------------------|----------------------16-21p16----------------------| 
|-----------------9------|-------------------18----------18-------------------| 
|-8h10-10-10-(10)---8-10-|-(10)-----------18----------------18----------------| 
|------------------------|-------------18----------------------18-------------| 
|------------------------|-------16h20----------------------------20p16-------| 
|------------------------|----------------------------------------------16-\9-| 


   E  E  +E   E  +E   E  S  S  S  S 
|-----------------------------------| 
|-11-11-(11)-14-(14)-11-------------| 
|-----------------------13-15-13-11-| 
|-----------------------------------| 
|-----------------------------------| 
|-----------------------------------| 


  N.C. 
       ~~~~~            ~~~                                    ~~ 
   Q   H        E  E    H.       Q     S  S  S  S  S  S  S  S  H 
|--------------------|--------------|-16-16-16-16-16-16-16-16-16----|| 
|-11-----------------|--------------|-------------------------------|| 
|-----13b15----13-11-|-13-------13--|-------------------------------|| 
|--------------------|--------------|-------------------------------|| 
|--------------------|--------------|-------------------------------|| 
|--------------------|--------------|-------------------------------|| 


 Outro 
                                 |--3--| 
   Q   Q   Q   E  E    +H.       E  E  E    H.       Q 
|-------------------|--------------------|----------------| 
|-16--16--16--16-16-|-(16)------16h18p16-|-15-------------| 
|-------------------|--------------------|----------15----| 
|-------------------|--------------------|----------------| 
|-------------------|--------------------|----------------| 
|-------------------|--------------------|----------------| 


  N.C. 
   Q   Q   Q   E  E    +E   E  H     E  E        +H.        E  E 
|-------------------|-------------------------|------------------| 
|-16--16--15-----13-|-(13)-------------18b20==|=(18)r------18-16-| 
|-------------15----|------15-12----12--------|------------------| 
|-------------------|-------------------------|------------------| 
|-------------------|-------------------------|------------------| 
|-------------------|-------------------------|------------------| 


   E  E  E  S  S  E  E  E  E    E  E  E  E  S  S  E  S  S  E 
|----------------------15-18-|-15----15------------------------| 
|-18-16-15-16-15----16-------|----18----16-18-16-15-16-15------| 
|----------------17----------|----------------------------17---| 
|----------------------------|---------------------------------| 
|----------------------------|---------------------------------| 
|----------------------------|---------------------------------| 


                                 |--3--| 
   Q   Q   Q   E  E    +H.       E  E  E    H.       Q 
|-------------------|--------------------|--------------| 
|-16--16--16--16-16-|-(16)------16h18p16-|-15-----------| 
|-------------------|--------------------|----------15--| 
|-------------------|--------------------|--------------| 
|-------------------|--------------------|--------------| 
|-------------------|--------------------|--------------| 


                                                            |--3--| 
   Q   Q   Q   E  E    +E   E  H     E  E        +H.        E  E  E 
|-------------------|-------------------------|------------------------| 
|-16--16--15-----13-|-(13)-------------18b20==|=(18)r------------------| 
|-------------15----|------15-12----12--------|---------------17-15----| 
|-------------------|-------------------------|------------15----------| 
|-------------------|-------------------------|------------------------| 
|-------------------|-------------------------|------------------------| 


  N.C. 
   |--3--|  |--3--|  |--3--|  |--3--| 
   E  E  E  E  E  E  E  E  E  E  E  E 
|-------15----------------------15-18-| 
|-18-16----18-16-15----------16-------| 
|-------------------17-15-17----------| 
|-------------------------------------| 
|-------------------------------------| 
|-------------------------------------| 


                                                   Eb 
      |--3--|  |--3--|  |--3--|  |--3--|            |--3--| 
   a  E  E  E  E  E  E  E  E  E  E  E  E    H    E  S  S  S  E  E 
|-15-------------------------------------|---------------------15--| 
|----16----------------------------------|------------------16-----| 
|-------17-13-15-------------------------|---------------15--------| 
|----------------17-13-15----------13----|------------17-----------| 
|-------------------------17-13-15----17-|-15------18--------------| 
|----------------------------------------|-------------------------| 


  N.C. 
   Q.    E  Q   E  E    +E   E  E  E  E  E  E  E 
|--------------------|---------------------------| 
|-18----16-15--------|---------------------------| 
|--------------17-15-|-(15)----------------15----| 
|--------------------|------17s15-13-15-17----15-| 
|--------------------|---------------------------| 
|--------------------|---------------------------| 


                             ~~ 
   E  E  E  E  E  E  E  E    H    E S S E  E 
|-------------------------|-------------8-11-| 
|-------------------------|-----------8------| 
|-------------------------|---------8--------| 
|-13----17----------------|------------------| 
|----17----15-17-13----13-|-15---------------| 
|-------------------15----|------------------| 


  N.C. 
                                   ~~~~ 
   a  Q  E  E  +Q    E     +E     +H.      E  S  S 
|-11p10--8---------------------|-------------------| 
|----------11-(11)-------------|-------------------| 
|-------------------10b12r(10)-|-(10)--------15-15-| 
|------------------------------|-------------------| 
|------------------------------|-------------------| 
|------------------------------|-------------------| 


   |------6-------|  |------6-------|  |-----5-----|  |-----5-----| 
   S  S  S  S  S  S  S  S  S  S  S  S  S  S  S  S  S  S  S  S  S  S 
|-------------15-16-18-16-15-------------------15-16----------16-18--| 
|----15-16-18----------------18-16-15-15-16-18-------16-18-20--------| 
|-17-----------------------------------------------------------------| 
|--------------------------------------------------------------------| 
|--------------------------------------------------------------------| 
|--------------------------------------------------------------------| 


  N.C. 
   ~~~~~~~~~~~~~~~~ 
   W           +Q   Q   E  E  E  E 
|-20--------|-(20)--------------15-| 
|-----------|-------3S=15-16-18----| 
|-----------|----------------------| 
|-----------|----------------------| 
|-----------|----------------------| 
|-----------|----------------------| 


                         ~~~~~~~~~~ 
   +E   E  E  E  +E   E  Q     +H.      E  S  S 
|-(15)----------------------|-------------------| 
|------18-16-15-(15)--------|-------------------| 
|--------------------17-15--|-(15)--------15-17-| 
|---------------------------|-------------------| 
|---------------------------|-------------------| 
|---------------------------|-------------------| 


   |-----5-----|  |-----5-----|  |-----5-----|  |-----5-----| 
   S  S  S  S  S  S  S  S  S  S  S  S  S  S  S  S  S  S  S  S 
|-------------------------------------15-16-18-16-15----------| 
|----------------15-16-18-16-15-16-18----------------18-16-15-| 
|-19-17-15-17-19----------------------------------------------| 
|-------------------------------------------------------------| 
|-------------------------------------------------------------| 
|-------------------------------------------------------------| 


   |-----5-----|  |-----5-----|  |-----5-----|  |-----5-----| 
   S  S  S  S  S  S  S  S  S  S  S  S  S  S  S  S  S  S  S  S 
|-16-15-------15----------16-15-13----15-13---------------------| 
|-------18-16----18-16-15----------16-------16-15-18-16-15-13---| 
|---------------------------------------------------------------| 
|---------------------------------------------------------------| 
|---------------------------------------------------------------| 
|---------------------------------------------------------------| 


  N.C. 
   |----5-----|  |---5----| |----5----| |---5----| 
   S  S  S S  S  S S S  S S S  S S S  S S S  S S S 
|--------------------------------------------------| 
|-15-13-11-9-13-11-9-8-11-9-8----9-8------8--------| 
|-----------------------------10-----10-8---10-8-7-| 
|--------------------------------------------------| 
|--------------------------------------------------| 
|--------------------------------------------------| 


   |---5----| |----5----| |---5----|  |---5----| 
   S S S  S S S  S S S  S S S  S S S  S S S  S S 
|--------------------------------------------------| 
|--------------------------------------------------| 
|-10-8-7----8-7------7-----------------------------| 
|--------10-----10-8---10-8-6-10-8-6----8-6--------| 
|------------------------------------10-----10-8---| 
|--------------------------------------------------| 


  |----5----| |----5----|  |----5-----| |----5-----| 
  S  S S S  S S S  S S  S  S S  S  S  S S  S  S  S S 
|----------------------------------------------------| 
|----------------------------------------------------| 
|----------------------------------------------------| 
|-8--------------------------------------------------| 
|---10-8-6-10-8-6------------8-10-11-10-8-10-11-10-8-| 
|-----------------10-8-10-11-------------------------| 


   |-----5-----|  |-----5-----|  |-----5-----|  |-----5-----| 
   S  S  S  S  S  S  S  S  S  S  S  S  S  S  S  S  S  S  S  S 
|---------------------------------------------------------------| 
|---------------------------------------------------------------| 
|----------------------------------------------------12-13-15---| 
|-------------------12-13-12----------------12-13-15------------| 
|----------11-13-15----------15-13-11-13-15---------------------| 
|-11-13-15------------------------------------------------------| 


  N.C. 
   |-----5-----|  |-----5-----|  |-----5-----|  |-----5-----| 
   S  S  S  S  S  S  S  S  S  S  S  S  S  S  S  S  S  S  S  S 
|-------------------------------------------------------------| 
|----------------------------------------13-15-16-15-13-------| 
|-12-13-15-13-12----------------12-13-15----------------15-13-| 
|----------------15-13-12-13-15-------------------------------| 
|-------------------------------------------------------------| 
|-------------------------------------------------------------| 


   |-----5-----|  |-----5-----|  |-----5-----|  |-----5-----| 
   S  S  S  S  S  S  S  S  S  S  S  S  S  S  S  S  S  S  S  S 
|-------------------13-15-16-15-13-------------------13-15-16---| 
|----------13-15-16----------------16-15-13-13-15-16------------| 
|-12-13-15------------------------------------------------------| 
|---------------------------------------------------------------| 
|---------------------------------------------------------------| 
|---------------------------------------------------------------| 


  N.C. 
                                                                       ~~ 
   |------6-------|  |-----5-----|  |-----5-----|  |------6-------| 
   S  S  S  S  S  S  S  S  S  S  S  S  S  S  S  S  S  S  S  S  S  S    W 
|----------15-16-18-16-15----------------15-16-18----------16-18-20-|-20----| 
|-15-16-18----------------18-16-15-16-18----------16-18-20----------|-------| 
|-------------------------------------------------------------------|-------| 
|-------------------------------------------------------------------|-------| 
|-------------------------------------------------------------------|-------| 
|-------------------------------------------------------------------|-------| 


  N.C. 
                ~~~~~ 
     |-3-| 
  E  S S S E E  H         E E  E E  E    E E  E 
|----------8------------|---8--------------8----| 
|--------8---8-11b13----|-----11-8-------8---11-| 
|------8----------------|----------10b12--------| 
|---10------------------|-----------------------| 
|-----------------------|-----------------------| 
|-----------------------|-----------------------| 


  E  E  +E      S S  E E E  E    E E E  E  E E  E E 
|-----------------------------|---------------------| 
|-8--------------------8------|----8----------------| 
|---10-(10)b12-10p8-10---8----|-10---8----10-8------| 
|--------------------------10-|--------10------10-8-| 
|-----------------------------|---------------------| 
|-----------------------------|---------------------| 


  N.C. 
  +Q    E E  a E  E E  E   E E E E E E E E   E E E E H 
|------------------------|-----------------|--------------*| 
|------------------------|-----------------|--------------*| 
|------------------------|-----------------|--------------*| 
|-(8)--10-8--------------|-----------------|--------------*| 
|-----------10-8----8-10-|-6-5---------3---|-6-6-3---3----*| 
|----------------11------|-----6-3-3-6---6-|-------6------*| 
	  

Search Paypal
auto scroll beats size up size down change color hide chords drawings
tab show chords e-chords YouTube Clip e-chords hide all tabs e-chords go to top tab