Metronomy

Reservoir

Metronomy

tabs

by  RENEJUNIOR

save to print version add songbook text version e-mail correct tuner
chordsukulelecavacokeyboardtabbassdrumsharmonicaflute Guitar Pro
close

there isn't a video lesson for this song

chords

Reservoir

	  		

from 0:02                                                                          to 0:29 
e|-------------------12---14-12-10-----------------------------------|        |-----------| 
B|--12-12--13-12-10-----------------12---12-10-12---10-12-10-12------|        |--12-12----|  
G|------------------------------------------------9-------------9----|4x      |-----------| 
D|-------------------------------------------------------------------|        |-----------|    
A|-------------------------------------------------------------------|        |-----------| 
E|-------------------------------------------------------------------|        |-----------| 

from 1:10                                                                          to 1:36 
e|-------------------12---14-12-10-----------------------------------|        |-----------| 
B|--12-12--13-12-10-----------------12---12-10-12---10-12-10-12------|        |--10-10-12-|  
G|------------------------------------------------9-------------9----|4x      |-----------| 
D|-------------------------------------------------------------------|        |-----------|    
A|-------------------------------------------------------------------|        |-----------| 
E|-------------------------------------------------------------------|        |-----------| 

from 2:18                                                                          to 2:45    
e|-------------------12---14-12-10-----------------------------------|        |-----------| 
B|--12-12--13-12-10-----------------12---12-10-12---10-12-10-12------|        |--10-10----|  
G|------------------------------------------------9-------------9----|4x      |-----------| 
D|-------------------------------------------------------------------|        |-----------|    
A|-------------------------------------------------------------------|        |-----------| 
E|-------------------------------------------------------------------|        |-----------| 

from 2:46 to "end"                                                                    end 
e|--------------------------14---------12--------12------------------|        |----12-----| 
B|------------13-----------------------------------------------------|        |-----------| 
G|---------------11--11-11------9--9-9----9--9-9---------------------|        |-----------|      
D|--10--10-10--------------------------------------------------------|4x      |-----------| 
A|-------------------------------------------------------------------|        |-----------|  
E|-------------------------------------------------------------------|        |-----------| 



they tabs maybe incorrect. 
because that my first tabs. thanks. 
		  

See also:

tabs A Flock Of Seagulls - Dna tabs Soft Cell - Tainted Love Intro tabs Disclosure - Stimulation tabs Aphex Twin - Petiatil Cx Htdui tabs Flux Pavillion - I Can't Stop tabs The XX - Together
e-chords

Other versions:

tabs Metronomy - Reservoir tabs Real Estate - Reservoir 3 tabs Soundtracks - Reservoir Dogs Theme
auto scroll beats size up size down change color hide chords drawings
tab show chords e-chords YouTube Clip e-chords hide all tabs e-chords go to top tab

share