Metro Station

Seventeen Forever

Metro Station

tabs Advanced advanced

by  EUROPEU

save to print version add songbook text version e-mail correct tuner
chordsukulelecavacokeyboardtabbassdrumsharmonicaflute Guitar Pro
close

there isn't a video lesson for this song

chords

Seventeen Forever

	  		Standard Tuning (EADGBe) 

Intro 

Guitar 1 
e----------------------------------------------------| 
B----------------------------------------------------| 
G-----12----12----12----12-----12----12----12----12--| 
D--10----10----10----10------------------------------| 
A---------------------------13----13----13----13-----| 
E----------------------------------------------------| 

Guitar 1 cont. 
e---------------------------| 
B---------------------------| 
G-----12----12----12----12--| 
D---------------------------| 
A--11----11----11----11-----| 
E---------------------------| 

Guitar 2 
e-----18----16-15----18--20-16-15--| 
B--13----13-------13---------------| 
G----------------------------------| 
D----------------------------------| 
A----------------------------------| 
E----------------------------------| 

Verse: continue Guitar 1 from the intro 

Chorus: 
e---------------------------------------| 
B---------------------------------------| 
G--12~~~~~~~~~-8~~~~~~~~~-12~~~~~~~~~~--| 
D--12~~~~~~~~~-6~~~~~~~~~-12~~~~~~~~~~--| 
A--10~~~~~~~~~-6~~~~~~~~~-10~~~~~~~~~~--| 
E---------------------------------------| 

Verse 2: same as verse 1, but with a little riff played over it. 

riff1 
e-----18-15----16-15----18--| 
B--13-------13-------13-----| 
G---------------------------| 
D---------------------------| 
A---------------------------| 
E---------------------------| 

Repeat Chorus 

Bridge 
e-----15-13-15----15-13-11--| 
B--13----------13-----------| 
G---------------------------| 
D---------------------------| 
A---------------------------| 
E---------------------------| 

Repeat Verse 2 style 

Repeat Chorus twice:  let chords ring out 

Repeat Chorus: strumming 

Outro: Repeat Bridge until end... 
		  

auto scroll beats size up size down change color hide chords drawings
tab show chords e-chords YouTube Clip e-chords hide all tabs e-chords go to top tab

share