Metallica

home > Metallica

The Lord Of Summer Tab

Metallica

Difficulty: IntermediateIntermediate

by aleffederico

tuner correct add songbook print version text version save to e-mail
chordsukulelecavacokeyboardtabbassdrumsharmonicsflute Guitar Pro
chords

The Lord Of Summer

  		

Intro 

 D#||---------------|-------|----------------|-------|----------------|-------|  
 A#||---------------|-------|----------------|-------|----------------|-------|  
 F#||o--------------|-------|----------------|-------|----------------|-------|  
 C#||o5--4--4-------|-------|--5--4--4-------|-------|--5--4--4-------|-------|  
 G#||-5--4--4-------|-------|--5--4--4-------|-------|--5--4--4-------|-------|  
 D#||-3--2--2-------|-------|--3--2--2-------|-------|--3--2--2-------|-------|  


----------------|------|| 
----------------|------|| 
----------------|-----o|| 
--5--2--2-------|-----o|| 
--5--2--2-------|------|| 
--3--0--0-------|------|| 


Main Riff 

----------------------------------------------------| 
----------------------------------------------------| 
----------------------------------------------------|    x3 
--------------4-------------------------------------| 
----------------------------------------------------| 
--0h-2--2-----------2-----------2M-2M-2M----2M-2M---| 



----------------------------------------------------| 
----------------------------------------------------| 
----------------------------------------------------| 
--------------4-----------5-----4-----4-------------| 
--------------------------5-----4-----4-------------| 
--0h-2--2-----------2-----3-----2-----2-------------| 


Play that whole section 4 times, then play: 

----------------------------------------------------| 
----------------------------------------------------| 
----------------------------------------------------| 
--2-----------2-----------2-----------2-------------| 
--2-----------2-----------2-----------2-------------| 
--0-----0M-0M-0-----------0-----0M-0M-0-------------| 


----------------------------------------------------| 
----------------------------------------------------| 
----------------------------------------------------| 
--2-----------2-----------2-----------3-------------| 
--2-----------2-----------2-----------3-------------| 
--0-----0M-0M-0-----------0-----------1-------------| 


----------------------------------------------------| 
----------------------------------------------------| 
----------------------------------------------------|    x2 
--------------4-------------------------------------| 
----------------------------------------------------| 
--0h-2--2-----------2-----------2M-2M-2M----2M-2M---| 




Twice 

then: 

----------------------------------------------------| 
----------------------------------------------------| 
----------------------------------------------------| 
--2-----------2-----------2-----------2-------------| 
--2-----------2-----------2-----------2-------------| 
--0-----0M-0M-0-----------0-----0M-0M-0-------------| 


----------------------------------------------------| 
----------------------------------------------------| 
----------------------------------------------------| 
--2-----------2-----------2-----------2-------------| 
--2-----------2-----------2-----------2-------------| 
--0-----0M-0M-0-----------0-----0M-0M-0-------------| 


----------------------------------------------------| 
----------------------------------------------------| 
--5-----------5-----------5-----------5-------------| 
--5-----------5-----------5-----------5-------------| 
--3-----3M-3M-3-----------3-----3M-3M-3-------------| 
----------------------------------------------------| 


----------------------------------------------------| 
----------------------------------------------------| 
--4-----------4-----------2-------------------------| 
--4-----------4-----------2-----------2-------------| 
--2-----2M-2M-2-----------0-----------2-------------| 
--------------------------------------0-------------| 




Legend 
L - tied note 
x - dead note 
h - hammer on/pull off 
b - bend 
s - slide 
~ - vibrato 
g - ghost note 
> - accentuated note 
t - trill 
M - palm mute 
. - staccato 
P - popping (bass) 
S - slapping (bass) 
+ - tapping 
W - wide vibrato 
< - fade in 
w - whammy bar 
= - tremolo picking 
v - brush up 
^ - brush down 
V - pick stroke up 
n - pick stroke down  
	  

Search Paypal
auto scroll beats size up size down change color hide chords drawings
tab show chords e-chords YouTube Clip e-chords hide all tabs e-chords go to top tab