Metallica

home > Metallica

Suicide & Redemption Tab

Metallica

Difficulty: BeginnerBeginner

by andrsouza

tuner correct add songbook print version text version save to e-mail
chordsukulelecavacokeyboardtabbassdrumsharmonicsflute Guitar Pro
chords

Suicide & Redemption

  		1st:----------| 
2nd:----------| 
3rd:----------| 
4th:-4--4--5--| 
5th:-2--2--3--| 
6th:-2--2--3--| x6 

1st:-------------------------------------| 
2nd:-------------------------------------| 
3rd:-------------------------------------| 
4th:-4~--------4~---------4~---------4~--| 
5th:-2~--------2~---------2----------2~--| 
6th:-------------------------------------| 

1st:----------------------------------| 
2nd:----------------------------------| 
3rd:----------------------------------| 
4th:-------------4-4-------------4-4--| 
5th:-2-2-0-2-2-0-2p0-2-2-0-2-2-0-3p0--| 
6th:----------------------------------| x4 
     palm mute     palm mute 

1st:----------------------    ---| 
2nd:----------------------    ---| 
3rd:-4---4---4------------    ---| 
4th:-4---4---4---4-4-4-4--    -4-| 
5th:-2-x-2-x-2-x-3-3-3-3--    -2-| 
6th:---------------------- x3 ---| 

(bass riff) 

1st:-----------------------------| 
2nd:-----------------------------| 
3rd:-7b^8r7-4--------------------| 
4th:-7--8-7-4-4-4-4-4-4-4-4-4-4--| 
5th:----------0-2-2-0-2-2-0-2-0--| 
6th:-----------------------------| x4 
              palm muted-----| 

1st:-------------------------------------------------------------| 
2nd:-------------------------------------------------------------| 
3rd:-7-7-7-7-7-7-7-7-7-7-7-7-14-14-14-14-14-14-14-14-14-14-14-14-| 
4th:-------------------------------------------------------------| 
5th:-5-5-5-5-5-5-5-5-5-5-5-5-12-12-12-12-12-12-12-12-12-12-12-12-| 
6th:-------------------------------------------------------------| 

1st:-----------------------------| 
2nd:-----------------------------| 
3rd:-7b^8r7-4--------------------| 
4th:-7--8-7-4-4-4-4-4-4-4-4-4-4--| 
5th:----------0-2-2-0-2-2-0-2-0--| 
6th:-----------------------------| x4 
              palm muted-----| 

1st:-------------------------------------------------------------| 
2nd:-------------------------------------------------------------| 
3rd:-7-7-7-7-7-7-7-7-7-7-7-7-14-14-14-14-14-14-14-14-14-14-14-14-| 
4th:-------------------------------------------------------------| 
5th:-5-5-5-5-5-5-5-5-5-5-5-5-12-12-12-12-12-12-12-12-12-12-12-12-| 
6th:-------------------------------------------------------------| 


1st:------------------------------------------| 
2nd:------------------------------------------| 
3rd:------------------------------------------| 
4th:---------------5/4---5/4------------------| 
5th:-4-4-2-4-2-4-x-3/2-x-3/2-4-4-2-4-2-4-2-4--| 
6th:-2-2-0-2-0-2-x-3-2-x-3-2-2-2-0-2-0-2-0-2--| x2 

1st:--------------------------| 
2nd:--------------------------| 
3rd:--------------------------| 
4th:--------------------------| 
5th:-7-7-7-7-7-7-8-8-8-8-8-8--| 
6th:--------------------------| 
     palm muted--------------| 

1st:------------------------------------------| 
2nd:------------------------------------------| 
3rd:------------------------------------------| 
4th:---------------5/4---5/4------------------| 
5th:-4-4-2-4-2-4-x-3/2-x-3/2-4-4-2-4-2-4-2-4--| 
6th:-2-2-0-2-0-2-x-3-2-x-3-2-2-2-0-2-0-2-0-2--| 

1st:--------------------------------------------| 
2nd:--------------------------------------------| 
3rd:-----------------------------------------8--| 
4th:-------------------------------------7-8----| 
5th:-7-7-7-7-7-7-8-8-8-8-8-8-9-9-9-9-9-9--------| 
6th:--------------------------------------------| 
     palm muted, gradually release-------------| 

1st:-----------------------------| 
2nd:-----------------------------| 
3rd:-7b^8r7-4--------------------| 
4th:--------4-4-4-4-4-4-4-4-4-4--| 
5th:----------0-2-2-0-2-2-0-2-0--| 
6th:-----------------------------| 
              palm muted-----| 

1st:-----------------------------| 
2nd:-----------------------------| 
3rd:-7b^8r7-4--------------------| 
4th:-7--8-7-4-4-4-4-4-4-4-4-4-4--| 
5th:----------0-2-2-0-2-2-0-2-0--| 
6th:-----------------------------| x3 
              palm muted-----| 

--- 

Guitar 2 (delay) 
1st:---------------------------------| 
2nd:---------------------------------| 
3rd:-------7--(7)------7--(7)------7-| 
4th:-9--(9)------9--(9)------9--(9)--| 
5th:---------------------------------| 
6th:---------------------------------| x4 

1st:-----------------------------| 
2nd:-----------------------------| 
3rd:-7b^8r7-4--------------------| 
4th:-7--8-7-4-4-4-4-4-4-4-4-4-4--| 
5th:----------0-2-2-0-2-2-0-2-0--| 
6th:-----------------------------| x4 
              palm muted-----| 

--- 

1st:-------------------------------------------------------------| 
2nd:-------------------------------------------------------------| 
3rd:-7-7-7-7-7-7-7-7-7-7-7-7-14-14-14-14-14-14-14-14-14-14-14-14-| 
4th:-------------------------------------------------------------| 
5th:-5-5-5-5-5-5-5-5-5-5-5-5-12-12-12-12-12-12-12-12-12-12-12-12-| 
6th:-------------------------------------------------------------| 

--- 

Guitar 2 (delay) 
1st:---------------------------------| 
2nd:---------------------------------| 
3rd:-------7--(7)------7--(7)------7-| 
4th:-9--(9)------9--(9)------9--(9)--| 
5th:---------------------------------| 
6th:---------------------------------| x4 

1st:-----------------------------| 
2nd:-----------------------------| 
3rd:-7b^8r7-4--------------------| 
4th:-7--8-7-4-4-4-4-4-4-4-4-4-4--| 
5th:----------0-2-2-0-2-2-0-2-0--| 
6th:-----------------------------| x4 
              palm muted-----| 

--- 

1st:-------------------------------------------------------------| 
2nd:-------------------------------------------------------------| 
3rd:-7-7-7-7-7-7-7-7-7-7-7-7-14-14-14-14-14-14-14-14-14-14-14-14-| 
4th:-------------------------------------------------------------| 
5th:-5-5-5-5-5-5-5-5-5-5-5-5-12-12-12-12-12-12-12-12-12-12-12-12-| 
6th:-------------------------------------------------------------| 

1st:------------------------------------------| 
2nd:------------------------------------------| 
3rd:------------------------------------------| 
4th:---------------5/4---5/4------------------| 
5th:-4-4-2-4-2-4-x-3/2-x-3/2-4-4-2-4-2-4-2-4--| 
6th:-2-2-0-2-0-2-x-3-2-x-3-2-2-2-0-2-0-2-0-2--| x2 

1st:--------------------------------------------| 
2nd:--------------------------------------------| 
3rd:-----------------------------------------8--| 
4th:-------------------------------------7-8----| 
5th:-7-7-7-7-7-7-8-8-8-8-8-8-9-9-9-9-9-9--------| 
6th:--------------------------------------------| 
     palm muted, gradually release-------------| 

1st:-----------------------------| 
2nd:-----------------------------| 
3rd:-7b^8r7-4--------------------| 
4th:--------4-4-4-4-4-4-4-4-4-4--| 
5th:----------0-2-2-0-2-2-0-2-0--| 
6th:-----------------------------| 
              palm muted-----| 

1st:-----------------------------| 
2nd:-----------------------------| 
3rd:-7b^8r7-4--------------------| 
4th:-7--8-7-4-4-4-4-4-4-4-4-4-4--| 
5th:----------0-2-2-0-2-2-0-2-0--| 
6th:-----------------------------| x3 
              palm muted-----| 

1st:-------------------------| 
2nd:-------------------------| 
3rd:------------------7-8-9--| 
4th:-2-2--2-2--2--2-2--------| 
5th:-2-2--2-2--2--2-2-5-6-7--| 
6th:-0-0--0-0--0--0-0--------| x4 

1st:-------------------------------------------| 
2nd:-------------------------------------------| 
3rd:------------------7-8-9-----5-----7--------| 
4th:-5-5--5-5--5--5-5--------5--5--7--7--7-6-5-| 
5th:-3-3--3-3--3--3-3-5-6-7--5--3--7--5--5-4-3-| 
6th:-3-3--3-3--3--3-3--------3-----5-----------| 

1st:-------------------------| 
2nd:-------------------------| 
3rd:------------------7-8-9--| 
4th:-2-2--2-2--2--2-2--------| 
5th:-2-2--2-2--2--2-2-5-6-7--| 
6th:-0-0--0-0--0--0-0--------| x2 

1st:--------------------------------------------------------| 
2nd:--------------------------------------------------------| 
3rd:------------------7-8-9-----5-----7---------------------| 
4th:-5-5--5-5--5--5-5--------5--5--7--7--7-6-5--5-4-3--2--5-| 
5th:-3-3--3-3--3--3-3-5-6-7--5--3--7--5--5-4-3--3-2-1--0--3-| 
6th:-3-3--3-3--3--3-3--------3-----5------------------------| 

--- 

1st:---- 
2nd:---- 
3rd:---- 
4th:-4-- 
5th:-2-- 
6th:---- 

Guitar 1 (clean) 
1st:-2----2-----------------2---------------2--| 
2nd:-3----3------3p2--------3--2-2h3p2------3--| 
3rd:-4----4----4-----4------4---------4-----4--| 
4th:------4--4------------4---------------4----| 
5th:--------------------2---------------2------| 
6th:-------------------------------------------| 

--- 

Guitar 2 (lead) 
1st:------------------------------------| 
2nd:-----7-----7---------7--------------| 
3rd:-7/9---9-7---9---7/9---9/6-9-7/6----| 
4th:---------------------------------9--| 
5th:------------------------------------| 
6th:------------------------------------| x2 

Guitar 1 (clean) 
     D       A      Bm 
1st:-----2-----------------------------| 
2nd:-----3-------2------3-3p2-------3--| 
3rd:---2---------2------4-----4-----4--| 
4th:-0---------2------4-----------4----| 
5th:---------0------2-----------2------| 
6th:-----------------------------------| x2 

--- 

Guitar 2 
1st:---------------------------------| 
2nd:-----7-----7/10~------7----------| 
3rd:-7/9---9-7--------7/9---9-7/6----| 
4th:------------------------------9--| 
5th:---------------------------------| 
6th:---------------------------------| 

Guitar 1 (clean) 
     Bm     A      E 
1st:-----------------------------| 
2nd:-----3------2----------------| 
3rd:-----4------2------1------1--| 
4th:---4------2--------2------2--| 
5th:-2------0--------2------2----| 
6th:---------------0------0------| 

--- 

Guitar 2 
1st:----------------------------------------------| 
2nd:----------------------------------------------| 
3rd:----------------------------------------------| 
4th:-9~------------9------9----------------9------| 
5th:----------7-10---7-10-------------7-10---7-10-| 
6th:----------------------------------------------| 

Guitar 1 (turn up volume on guitar, or turn on distortion) 
1st:-------------------------------------| 
2nd:-------------------------------------| 
3rd:-------------7-8-9-------------7-8-9-| 
4th:-2-2--2-2--2-------2-2--2-2--2-------| 
5th:-2-2--2-2--2-5-6-7-2-2--2-2--2-5-6-7-| 
6th:-0-0--0-0--0-------0-0--0-0--0-------| 

--- 

Guitar 2 
1st:--------------------------------------------------------------| 
2nd:-8~-----8-7~---7-7h8p7-5~---5---------5~-------5----5-7--5-7--| 
3rd:------------------------------7-5-5-7------5-7----7-----------| 
4th:--------------------------------------------------------------| 
5th:--------------------------------------------------------------| 
6th:--------------------------------------------------------------| 

Guitar 3 
1st:-7~-------7~--------------------------------------------------| 
2nd:-----------------------8~-------------8~----------------------| 
3rd:--------------------------------------------------------------| 
4th:--------------------------------------------------------------| 
5th:--------------------------------------------------------------| 
6th:--------------------------------------------------------------| 

Guitar 1 
1st:-------------------------| 
2nd:-------------------------| 
3rd:------------------7-8-9--| 
4th:-2-2--2-2--2--2-2--------| 
5th:-2-2--2-2--2--2-2-5-6-7--| 
6th:-0-0--0-0--0--0-0--------| x2 

1st:-------------------------------------------| 
2nd:-------------------------------------------| 
3rd:------------------7-8-9-----5-----7--------| 
4th:-5-5--5-5--5--5-5--------5--5--7--7--7-6-5-| 
5th:-3-3--3-3--3--3-3-5-6-7--5--3--7--5--5-4-3-| 
6th:-3-3--3-3--3--3-3--------3--3--5-----------| 

--- 

Guitar 2 
1st:---------------------------------------------------------| 
2nd:-8~------8-8-----8-8-----7~------7-7-----7-7h8p7-5-------| 
3rd:-----4-4-----4-4-----4-4-----4-4-----4-4------------7-5~-| 
4th:---------------------------------------------------------| 
5th:---------------------------------------------------------| 
6th:---------------------------------------------------------| 

Guitar 3 
1st:-7~-------7~---------------| 
2nd:-----------------------8~--| 
3rd:---------------------------| 
4th:---------------------------| 
5th:---------------------------| 
6th:---------------------------| 

Guitar 1 
1st:-------------------------| 
2nd:-------------------------| 
3rd:-------------------------| 
4th:-2-2--2-2--2--2-2--------| 
5th:-2-2--2-2--2--2-2-5-6-7--| 
6th:-0-0--0-0--0--0-0--------| x2 

1st:------------------------| 
2nd:------------------------| 
3rd:------------------7-8-9-| 
4th:-5-5--5-5--5--5-5-------| 
5th:-3-3--3-3--3--3-3-5-6-7-| 
6th:-3-3--3-3--3--3-3-------| 

--- 

Guitar 2/Guitar 3 
1st:-------------------------------------| 
2nd:-----5-------5---5-------5---7-5---5-| 
3rd:-5-7---7-5-7---7---7-5-7---7-----7---| 
4th:-------------------------------------| 
5th:-------------------------------------| 
6th:-------------------------------------| 

Guitar 1 
1st:-------------------| 
2nd:-------------------| 
3rd:----5-----7--------| 
4th:-5--5--7--7--7-6-5-| 
5th:-5--3--7--5--5-4-3-| 
6th:-3-----5-----------| 

--- 

Guitar 2 
1st:---------------------------------------| 
2nd:-7~------7-----7---------7-------------| 
3rd:-----7/9---9-7---9---7/9---9/6-9-7/6---| 
4th:-------------------------------------9-| 
5th:---------------------------------------| 
6th:---------------------------------------| 

Guitar 1 
1st:------------------------------------------------------| 
2nd:------------------------------------------------------| 
3rd:------------------------------------------------------| 
4th:-7---7---7---7----------------------------------------| 
5th:-5555555555555-7---7---7---7-9---9--------------------| 
6th:---------------5555555555555-77777777-2-0-2-3-2-0-2-3-| 

--- 

Guitar 2 
1st:---------------------------------------| 
2nd:---------7-----7---------7-------------| 
3rd:-7~--7/9---9-7---9---7/9---9/6-9-7/6---| 
4th:-------------------------------------9-| 
5th:---------------------------------------| 
6th:---------------------------------------| 

Guitar 1 
1st:------------------------------------------------------| 
2nd:------------------------------------------------------| 
3rd:------------------------------------------------------| 
4th:-7---7---7---7----------------------------------------| 
5th:-5555555555555-7---7---7---7-9---9--------------------| 
6th:---------------5555555555555-77777777-2-0-2-3-2-0-2-3-| 

--- 

Guitar 2 
1st:------------------------------------| 
2nd:-7~------7-----7/10~------7---------| 
3rd:-----7/9---9-7--------7/9---9-7/6---| 
4th:----------------------------------9-| 
5th:------------------------------------| 
6th:------------------------------------| 

Guitar 1 
1st:-----------------------------------------------------------------| 
2nd:-----------------------------------------------------------------| 
3rd:-----------------------------------------------------------------| 
4th:-4---4---4---4-2---2---------------------------------------------| 
5th:-2222222222222-00000000-----------------2---2--------------------| 
6th:------------------------2-0-2-3-2-0-2-3-00000000-2-0-2-3-2-0-2-3-| 

--- 

Guitar 2 
1st:---------------------------------| 
2nd:-----------------7-5-7-8-7-5-7-8-| 
3rd:-7-6-7-9-7-6-7-9-----------------| 
4th:---------------------------------| 
5th:---------------------------------| 
6th:---------------------------------| 

Guitar 1 
1st:---------------------------------| 
2nd:---------------------------------| 
3rd:---------------------------------| 
4th:---------------------------------| 
5th:---------------------------------| 
6th:-2-0-2-3-2-0-2-3-2-0-2-3-2-0-2-3-| 

--- 

Guitar 1 
1st:-----------------------------------| 
2nd:-----------------------------------| 
3rd:-----------------------------------| 
4th:---------------------------------4-| 
5th:---------------------------------2-| 
6th:-2-0-2-3-2-0-2-3-2-0-2-3-2-0-2-3-2-| 
     palm mute---- 

(bass + drum break) 

1st:-----------------| 
2nd:-----------------| 
3rd:-----------------| 
4th:-5-5--4-------4--| 
5th:-3-3--2~------2--| 
6th:-3-3--2-------2--| 

1st:----------------------------------| 
2nd:----------------------------------| 
3rd:----------------------------------| 
4th:-------------4-4-------------4-4--| 
5th:-2-2-0-2-2-0-2p0-2-2-0-2-2-0-3p0--| 
6th:----------------------------------| x4 
     palm mute     palm mute 

--- 

Guitar 2 
1st:------------------------------------------| 
2nd:------------------------------------------| 
3rd:------------------------------------------| 
4th:------------------------------------------| 
5th:------------------------------------------| 
6th:-7~---5-8-5-7~---5-8-5-7~---5-8-5h7p5/2~--| x2 

Guitar 1 
1st:----------------------------------| 
2nd:----------------------------------| 
3rd:----------------------------------| 
4th:-------------4-4-------------4-4--| 
5th:-2-2-0-2-2-0-2p0-2-2-0-2-2-0-3p0--| 
6th:----------------------------------| x4 
     palm mute     palm mute 

--- 

1st:----------------------| 
2nd:----------------------| 
3rd:----------------------| 
4th:-4---4---4---4-4-4-4--| 
5th:-2-x-2-x-2-x-3-3-3-3--| 
6th:----------------------| x4 

--- Solo 

1st:-------------8---------8-------------------------8---------8-------------| 
2nd:---------------12-10-8---12-10-8-12~---------------12-10-8---12-10-8-12~-| 
3rd:-------------------------------------------------------------------------| 
4th:-9^(9)--7-9~--------------------------9^(9)-7-9~-------------------------| 
5th:-------------------------------------------------------------------------| 
6th:-------------------------------------------------------------------------| 

1st:------------------------------------------------| 
2nd:------------------------------------------------| 
3rd:------------------------------------------------| 
4th:-----------9-9-9-9-9-----------9-9-9-9-9-10-10^-| 
5th:------------------------------------------------| 
6th:-7-7-7-7-7-----------7-7-7-7-7------------------| 

1st:---------------------------------------------------------------------------------| 
2nd:-------------------------------------------------8-8-8-8-10-10-10-10-11-11-11-11-| 
3rd:---------------------7-7-7-7-9-9-9-9-11-11-11-11---------------------------------| 
4th:-9-9-9-9-10-10-10-10-------------------------------------------------------------| 
5th:---------------------------------------------------------------------------------| 
6th:---------------------------------------------------------------------------------| 

1st:-----------------------------------------------------------------------| 
2nd:-12-12-12-12///--------------------12-12-12-12///----------------------| 
3rd:-----------------11-9-12-11--9-11-----------------11-9-12--11-9-12-11~-| 
4th:-----------------------------------------------------------------------| 
5th:-----------------------------------------------------------------------| 
6th:-----------------------------------------------------------------------| 
     tremolo pick                    tremolo pick 

1st:--------------------------------------------------------------------------| 
2nd:-12v--15v--------------------8-7h8p7-----7--------------------------------| 
3rd:-----------9^(11)----7h9p7-----------9-7---9-7-6-9-7-6-9-7-6-7-6-4-7-6-4--| 
4th:--------------------------------------------------------------------------| 
5th:--------------------------------------------------------------------------| 
6th:--------------------------------------------------------------------------| 
     whammy 

1st:------------------------------------------| 
2nd:------------------------------------------| 
3rd:------4-4-7-7-4-4--4-7-4-7p4-6~---6-6-7-7-| 
4th:-7~---------------------------------------| 
5th:------------------------------------------| 
6th:------------------------------------------| 

1st:-22-19-17-19-22-19-17-19-22-19-17-19-22-19-17-19-22-| 
2nd:----------------------------------------------------| 
3rd:----------------------------------------------------| 
4th:----------------------------------------------------| 
5th:----------------------------------------------------| 
6th:----------------------------------------------------| 

--- Wah 

1st:-------------------------------------------------| 
2nd:-4---2--------------4--4--4-------------------2--| 
3rd:-4^----4p2--------2-4^-4^-4^-2---2---2-4^---2----| 
4th:-----------4--2h4--------------4---4------4------| 
5th:-------------------------------------------------| 
6th:-------------------------------------------------| x2 

1st:-2~-----------------------------| 
2nd:----5--2---------2--------------| 
3rd:---------4-2---2---4-2~----2-4--| 
4th:-------------4-----------4------| 
5th:--------------------------------| 
6th:--------------------------------| x3 

1st:---------------------------------------------| 
2nd:-2-------2--------2--------2--------2--------| 
3rd:---4p2-----4p2------4p2------4p2------4p2----| 
4th:-------4-------4--------4--------4--------4--| 
5th:---------------------------------------------| 
6th:---------------------------------------------| 

1st:------------------------------------------------------------------| 
2nd:------------------------------------------------------------------| 
3rd:---2h4p2---2h4p2---2h4p2---2h4p2---2h4p2----2h4p2---2h4p2---2h4p2-| 
4th:-4-------4-------4-------4-------4--------4-------4-------4-------| 
5th:------------------------------------------------------------------| 
6th:------------------------------------------------------------------| 

1st:-----------------------------------------------------------------------------------| 
2nd:-----------------------------------------------------------------------------------| 
3rd:---4h5p4---5h7p5---7h9p7----9h11p9----11h12p11----12h14p12----14h16p14----16h17p16-| 
4th:-5-------7-------9-------10--------12----------14----------16----------17----------| 
5th:-----------------------------------------------------------------------------------| 
6th:-----------------------------------------------------------------------------------| 

--- 

Guitar 2 (wah end) 
1st:---------------------------------| 
2nd:-10^-----------------------------| 
3rd:-10^-----------------------------| 
4th:---------------------------------| 
5th:---------------------------------| 
6th:---------------------------------| 

Guitar 1 
1st:---------------------------------| 
2nd:---------------------------------| 
3rd:---------------------------------| 
4th:-----------------5---------------| 
5th:-2-0-2-3-2-0-2-3---3-2-0-2-3-2-0-| 
6th:---------------------------------| 

--- 

1st:---------------------------------| 
2nd:---------------------------------| 
3rd:---------------------------------| 
4th:-----------------5---------------| 
5th:-2-0-2-3-2-0-2-3---3-2-0-2-3-2~--| 
6th:---------------------------------| 

1st:---------------------------------| 
2nd:---------------------------------| 
3rd:---------------------------------| 
4th:---------------------------------| 
5th:-----------------5---------------| 
6th:-2-0-2-3-2-0-2-3---3-2-0-2-3-2-0-| 

1st:---------------------------------| 
2nd:---------------------------------| 
3rd:---------------------------------| 
4th:---------------------------------| 
5th:-----------------5---------------| 
6th:-2-0-2-3-2-0-2-3---3-2-0-2-3-2~--| 

1st:---------------------------------| 
2nd:---------------------------------| 
3rd:---------------------------------| 
4th:-----------------5---------------| 
5th:-2-0-2-3-2-0-2-3---3-2-0-2-3-2-0-| 
6th:---------------------------------| 

1st:---------------------------------| 
2nd:---------------------------------| 
3rd:---------------------------------| 
4th:-----------------5---------------| 
5th:-2-0-2-3-2-0-2-3---3-2-0-2-3-2~--| 
6th:---------------------------------| 

1st:---------------------------------| 
2nd:---------------------------------| 
3rd:-----------------2---------------| 
4th:---------------------------------| 
5th:-4-2-4-5-4-2-4-5---5-4-2-4-5-4-2-| 
6th:---------------------------------| 

1st:---------------------------------| 
2nd:---------------------------------| 
3rd:-----------------2---------------| 
4th:---------------------------------| 
5th:-4-2-4-5-4-2-4-5---5-4-2-4-5-4~--| 
6th:---------------------------------| 

--- 

Guitar 1 
1st:----------------------------------------------------------------------------| 
2nd:----------------------------------------------------------------------------| 
3rd:----------------------------------------------------------------------------| 
4th:----------------------------------------------------------------------------| 
5th:-6-4-6-7-6-4-6~--7-5-7-8--7-5-7~--8--7-8~---9--8--9~---10-9--10~--11-10-11~-| 
6th:----------------------------------------------------------------------------| 

Guitar 2 
1st:----------------------------------------------------------------------------| 
2nd:----------------------------------------------------------------------------| 
3rd:----------------------------------------------------------------------------| 
4th:-8-6-8-9-8-6-8~--9-7-9-10-9-7-9~--10-9-10~--11-10-11~--12-11-12~--13-12-13~-| 
5th:----------------------------------------------------------------------------| 
6th:----------------------------------------------------------------------------| 

--- 

1st:--------------------------------------------| 
2nd:--------------------------------------------| 
3rd:-----------------------------------------8--| 
4th:-------------------------------------7-8----| 
5th:-7-7-7-7-7-7-8-8-8-8-8-8-9-9-9-9-9-9--------| 
6th:--------------------------------------------| 
     palm muted, gradually release-------------| 

(B feedback in background) 
1st:-----------------------------| 
2nd:-----------------------------| 
3rd:-7b^8r7-4--------------------| 
4th:--------4-4-4-4-4-4-4-4-4-4--| 
5th:----------0-2-2-0-2-2-0-2-0--| 
6th:-----------------------------| 
              palm muted-----| 

1st:-----------------------------| 
2nd:-----------------------------| 
3rd:-7b^8r7-4--------------------| 
4th:-7--8-7-4-4-4-4-4-4-4-4-4-4--| 
5th:----------0-2-2-0-2-2-0-2-0--| 
6th:-----------------------------| x3 
              palm muted-----| 

--- 

Guitar 1 
1st:-------------------------------------------------------------| 
2nd:-------------------------------------------------------------| 
3rd:-7-7-7-7-7-7-7-7-7-7-7-7-14-14-14-14-14-14-14-14-14-14-14-14-| 
4th:-------------------------------------------------------------| 
5th:-5-5-5-5-5-5-5-5-5-5-5-5-12-12-12-12-12-12-12-12-12-12-12-12-| 
6th:-------------------------------------------------------------| 

Guitar 2 
1st:-------------------------------------------------------------| 
2nd:-------------------------------------------------------------| 
3rd:-7-7-7-7-7-7-7-7-7-7-7-7-14-14-14-14-14-14-14-14-14-14-14-14-| 
4th:-------------------------------------------------------------| 
5th:-5-5-5-5-5-5-5-5-5-5-5-5-12-12-12-12-12-12-12-12-12-12-12-12-| 
6th:-------------------------------------------------------------| 

--- 

1st:------------------| 
2nd:------------------| 
3rd:------------------| 
4th:------------------| 
5th:-8-7---5-----5----| 
6th:-----7---7-6---5--| x2 

--- 

Guitar 1 
1st:-------------------| 
2nd:-------------------| 
3rd:-------------------| 
4th:-------------------| 
5th:--8-7---5-----5----| 
6th:------7---7-6---5--| x2 

Guitar 2 
1st:-------------------| 
2nd:-------------------| 
3rd:-10-9---7-----7----| 
4th:------9---9-8---7--| 
5th:-------------------| 
6th:-------------------| x2 

--- 

1st:-------| 
2nd:-------| 
3rd:-10-9--| 
4th:-10-9--| 
5th:-8--7--| 
6th:-8--7--| x4 (drum fills, hold second time) 

--- 

Guitar 1 
1st:------------------| 
2nd:------------------| 
3rd:------------------| 
4th:------------------| 
5th:-8-7---5-----5----| 
6th:-----7---7-6---5--| x3 

Guitar 2 
1st:-------------------| 
2nd:-------------------| 
3rd:-10-9---7-----7----| 
4th:------9---9-8---7--| 
5th:-------------------| 
6th:-------------------| x3 

--- 

1st:----------------------------| 
2nd:----------------------------| 
3rd:-10-9---7-------------------| 
4th:-10-9-9-7-8-7-5-3~------2-2-| 
5th:-8--7-9-5-8-7-5-3~------2-2-| 
6th:------7---6-5-3-1~------0-0-| 

1st:--------------------------------------| 
2nd:--------------------------------------| 
3rd:-6-6-4-6-4-6-------------6-6-4-6-4-6--| 
4th:-6-6-4-6-4-6-x-5-4-x-5-4-6-6-4-6-4-6--| 
5th:-4-4-2-4-2-4-x-5-4-x-5-4-4-4-2-4-2-4--| 
6th:-4-4-2-4-2-4-x-3-2-x-3-2-4-4-2-4-2-4--| x2 

1st:--------------------------------| 
2nd:--------------------------------| 
3rd:-6-6-4-6-4-6--------------------| 
4th:-6-6-4-6-4-6-x-5-4---4-3---3-2--| 
5th:-4-4-2-4-2-4-x-5-4-x-4-3-x-3-2--| 
6th:-4-4-2-4-2-4-x-3-2-x-2-1-x-1-0--| repeat until end, fade out 
	  

Full key step upFull key step up
Half key step upHalf key step up
Half key step downHalf key step down
Full key step downFull key step down
Search Paypal
auto scroll beats size up size down change color hide chords drawings
tab show chords e-chords YouTube Clip e-chords hide all tabs e-chords go to top tab