Metallica

home > Metallica

Prince Charming Tab

Metallica

Difficulty: AdvancedAdvanced

tuner correct add songbook print version text version save to e-mail
chordsukulelecavacokeyboardtabbassdrumsharmonicsflute Guitar Pro
chords

Prince Charming

Year: 1997 - Album: Reload

  		 
tune all guitars down 1/2 step 
1) 
Gb---------------------------------5------------ 
Db---------2--------5----------5-5-5-------5---- 
Ab--2/15\2-2--0h5h7---7~~0h5h7-------7-5h7---7~~ 
Eb--2/15\2-0------------------------------------ 
intro 
 
2a) James                            ^V^V^V 
Gb------------------------------------------ 
Db-----------5----------5----------5-7-7-7-5 
Ab-----0h5h7------0h5h7------0h5h7---------- 
Eb--0----------0----------0----------------- 
   pm          .          . 
 
2b) Kirk 
Eb------------------------------------0------------ 
Bb------------------------------------0------------ 
Gb------------------------------------------------- 
Db--2---2--7--5--7------2-----------------5-5-5---- 
Ab--2---2--5--3--5--5-5-0-2----x\x\x------------7-5 
Eb--0---0-----------3-3---0----x\x\x--------------- 
chorus riffs                  pick slide (right before chorus) 
 
 
3) 
Gb------------------------         ------ 
Db------------------------         ------ 
Ab--7-----5h7-----7-7-5h7- 4 times -5-6-7 
Eb--0-0-0-0-0-0-0-0-0-0-0-         -3-4-5 
   pm..................... 
verse "There's a black cloud up ahead, that is me" 
 
 
4) 
Gb--5-------5--5-------5--5-------5--------- 
Db----7-5-7------7-5-7------7-5-7----5-5---- 
Ab---------------------------------------7-5 
Eb------------------------------------------ 
fill inbetween verses 
 
 
5) 
Gb--------------------------              ------ 
Db--4-------4p2----4-4-4p2--              -4-5-6 
Ab--4-----------4----------4 4 times then -4-5-6 
Eb--2--2-2------------------              -2-3-4 
   pm.....                                 ..... 
solo riff  (Kirk plays with wah and a talk box) 
 
6) 
Gb------------------------------------------------- 
Db-------5---5------5---5------7---7---7----7-7---- 
Ab--7--7---7---7--7---7---7--9---9---9---9------9-7 
Eb------------------------------------------------- 
post solo fills 
 
7) 
Gb-----2-----2--------------------------------- 
Db--4--2--4--2------5-----4-----2-------------- 
Ab--4--0--4--0--0-0---0-0---0-0---0-0-5-0-0-3-2 
Eb--2-----2------------------------------------ 
      pm     .  ...   ...   ...   ...   ... 
"Look up to me" 
 
 
 
_______________________________________________________ 
Contribuição: Lucas de Carvalho Luis([email protected]) 

	  

Search Paypal
auto scroll beats size up size down change color hide chords drawings
tab show chords e-chords YouTube Clip e-chords hide all tabs e-chords go to top tab