Metallica

home > Metallica

Prince Charming Bass Tab

Metallica

Difficulty: nolevelnolevel

by eduardo%5Flyvio

tuner correct add songbook print version text version save to e-mail
chordsukulelecavacokeyboardtabbassdrumsharmonicsflute Guitar Pro
chords

Prince Charming

Year: 1997 - Album: Reload

  		h: hammer-on 
p: pull-off 
 
 
Guitar Intro   00:11 
 G||      || ||------------------------------||  
 D||  R   || ||------------------------------|| 
 A||      || ||------------------------------|| 
 E||      || ||0----2----3----4----5----4-3-2|| 
 
 
    00:25 
  ||---------------------------------------------|| 
  ||-------4----------4----------4-6-4---4-6-4---|| 
  ||-0h4h6---6--0h4h6---6--0h5h6-------6-------6-|| 
  ||---------------------------------------------|| 
 
 
    00:31 
  ||-----------------------------------------|| 
  ||------4----------4----------4------------|| 
  ||-0h4h6--6--0h4h6---6--0h4h6---4----------|| 
  ||---------------------------------33--2--1|| 
   
 
    00:39            8X 
  ||--------------------||  
  ||o------------------o||  
  ||o----4h6-4-4-4h6-6-o||  
  ||-0-0----------------||  
 
   
    00:59 
  ||6h8-88888-6h8-88888-6h8-88888-8p6-6----|| 
  ||------------------------------------8-6|| 
  ||---------------------------------------|| 
  ||---------------------------------------|| 
 
 
  Then you just repeat some of the figures that I just put down.  
  You can tell what to do if you just practice it. (along with the song) 
 
    2:55 
    solo     Repeat until the solo ends 
  ||---------------------|| 
  ||o-------------------o|| 
  ||o-----4h6-4-4-4h6-6-o|| 
  ||-0-0-----------------|| 
 
 
    3:24 
  ||6h8-88888-6h8-88888-6h8-88888-8p6-88888|| 
  ||---------------------------------------|| 
  ||---------------------------------------|| 
  ||---------------------------------------|| 
   
 
   
 
  ||8h10-1010101010-8h10-1010101010-8h10-1010101010-8p6-6----|| 
  ||------------------------------------------------------8-6|| 
  ||---------------------------------------------------------|| 
  ||---------------------------------------------------------|| 
 
  During the second solo you play the same thing as the first solo.  
 
 

	  

Search Paypal
auto scroll beats size up size down change color hide chords drawings
tab show chords e-chords YouTube Clip e-chords hide all tabs e-chords go to top tab