Metallica

home > Metallica

Master Of Puppets Solo Tab

Metallica

Difficulty: ExpertExpert

by Precious%2DSoul

tuner correct add songbook print version text version save to e-mail
chordsukulelecavacokeyboardtabbassdrumsharmonicsflute Guitar Pro
chords

Master Of Puppets Solo

  		 e |--------|--------0h2p0----3-|------------------|-----------------| 
B |--------|----3--------3-----|------3---3-----0-|(0)--0-------0---| 
G |------0-|--2---2--------2p0-|(0)-0---0---0-----|---2-------2-----| 
D |----2---|0------------------|--------------2---|-----------------| 
A |--2-----|-------------------|-3----------------|-0-----0-2-----2-| 
E |0-------|-------------------|------------------|-----------------| 
 
           
e |---------||--------|--------------|--------------|--------------|--------| 
B |(0)--0---||--------|--------------|--------------|--------------|--------| 
G |---2-----||--------|--------------|--------------|2------4------|8-------| 
D |-1-------||2-------|4-------------|5-------------|--------------|--------| 
A |---------||--------|--------------|--------------|--------------|--------| 
E |-------3-||--------|--------------|--------------|--------------|--------| 
 
Gutiar 2 
e|----/19-15----17-----------------17-14----15-----------------| 
B|-17--------17----15-15--15-15-15-------15----13-13--13-13-13-| 
G|-------------------------------------------------------------| 
D|-------------------------------------------------------------| 
A|-------------------------------------------------------------| 
E|-------------------------------------------------------------| 
 
e|-15-12----14-12h14p12-11-------------------11-12-14-| 
B|-------13----------------13-12-13-15-13-15-------------| 
G|--------------------------------------------------------------| 
D|--------------------------------------------------------------| 
A|--------------------------------------------------------------| 
E|--------------------------------------------------------------| 
 
 

	  

Search Paypal
auto scroll beats size up size down change color hide chords drawings
tab show chords e-chords YouTube Clip e-chords hide all tabs e-chords go to top tab