Metallica

home > Metallica

King Nothing Tab

Metallica

Difficulty: ExpertExpert

tuner correct add songbook print version text version save to e-mail
chordsukulelecavacokeyboardtabbassdrummharmonicsflute Guitar Pro
chords

King Nothing

Year: 1996 - Album: Load

  		 
                                                8x   last time w/  
fill 1 
E-| ---------------------|-------------------------|------------------ 
B-|- --------------------|-------------------------|------------------ 
G-|-- -------------------|-------------------------|------------------
D-|--- ------------------|-----------------8-----7-|------------------ 
A-|-0--1--2--------------|-------------------------|------------------
E-|-0--1--2--2--2--5--2--|--2--2--5--2--8-----7----|------------------ 
                                                                       
          
                                                                       
    2 x   
E-|---------------------|-----------------|-------------------|-----------------| 
B-|---------------------|-----------------|-------------------|-----------------| 
G-|---------------------|-----------------|-------------------|-----------------| 
D-|----------3--2-------|----------3-2----|------------3--2---|-------------8-7-| 
A-|-0--1--2--1--0--2----|----------1-0-2--|------------1--0-2-|-----------------| 
E-|-0--1--2--------2----|--2-2-5-2-----2--|-2--2--5--2------2-|-2-2-5-2-8-7-----| 
                                                                       
          
    refrain                                                            
          
E-|--------------------------|---------------------------------------- 
B-|--------------------------|---------------------------------------- 
G-|--------------------------|---------------------------------------- 
D-|-7-7-7--10/--7--10/-------|-7-7-7--10/--7--10/--------------------- 
A-|---------------------7-5--|-------------------------7--5----------- 
E-|-----------------------5--|-----------------------------5---------- 
 
                                                                       
          
    and it all crashes down  and you break your crown... crumbles but. 
..        
E-|-------------------------|------------------|-------|-------------- 
B-|-------------------------|------------------|-------|-------------- 
G-|-------------------------|------------------|-------|-------------- 
D-|-2-----------------------|--5---------------|--4----|-3------------ 
A-|-2-----------------------|--3---------------|--2----|-1-1-1-1-1-1- 
E-|-2-----------------------|------------------|-------|-------------- 
                                                                   
       
   fill 1 played after intro riff is played twice                     
         
E-|------------------------------------------------------------------- 
B-|----------------------------------------------10p8h10p8h10p8------- 
G-|-12-12--9---12-12--9---12-9h12p9h12-----------------------9-------- 
D-|-12-12--9---12-12--9----------------------------------------------- 
A-|------------------------------------------------------------------- 
E-|------------------------------------------------------------------- 
                                                                   
         
                                                                       
          
E-|-------------------------------------|----------------------------- 
B-|-------------------------------------|----------------------------- 
G-|-12-12-9-12-12-9--12--13///-12-9--|----------------------------- 
D-|-12-12-9-12-12-9--12--13///-12-9--|----------------------------- 
A-|-------------------------------------|----------------------------- 
E-|-------------------------------------|----------------------------- 
                                                                       
          
    solo - played w/ intro riff, then refrain, then verse chords       

	  

Search Paypal
auto scroll beats size up size down change color hide chords drawings
tab show chords e-chords YouTube Clip e-chords hide all tabs e-chords go to top tab