Metallica

home > Metallica

King Nothing Bass Tab

Metallica

Difficulty: ExpertExpert

by eduardo%5Flyvio

tuner correct add songbook print version text version save to e-mail
chordsukulelecavacokeyboardtabbassdrummharmonicsflute Guitar Pro
chords

King Nothing

Year: 1996 - Album: Load

  		Intro 
=====           Bass Fig.1                    (8x) 
.|G|----10-----|-----------------------|------------------------| 
4|D||=========||*----------------5-----|-------5--------8---5--*| 
4|A|--guitar---|*---5-6-7----5/7----7--|---5/7----7\-----------*| 
.|E|-----------|--0-------0------------|-0-----------/6---7-----| 
 
  Bass Fig.2                                (4x) 
G|-----------------------|----------------------| 
D|*----------------------|--------------8---5--*| 
A|*---5-6-7----7\--------|---------------------*| 
E|--0-------------0-3-0--|--0-0-3-0--/6---7-----| 
 
  Bass Fig.3 
G|--------------------|------------------|------------------| 
D|*-------------------|------------------|------------------| 
A|*-------------------|------------------|------------------| 
E|--X-0-3-0--/6-6-5-X-|-1-0-3-0-/6-6-5-X-|-1-0-3-0-/6-6-5-X-| 
 
     (end Bass Fig.3) 
G|-------------------|------------------|------------------| 
D|-------------------|------------------|------------------| 
A|-------------------|------------------|------------------| 
E|-1-0-3-0-/6-6-5-3--|-0-0-3-0-/6-6-5-X-|-1-0-3-0-/6-6-5-X-| 
 
                                        Bass Fig.4 
G|------------------|------------------|-----------------------| 
D|------------------|------------------|--------7-----7--------| 
A|------------------|------------------|-0--0-0----0----0-0-0--| 
E|-1-0-3-0-/6-6-5-X-|-1-0-3-0-/6-6-5-3-|-----------------------| 
 
        (end Bass Fig.4) 
G|----------------------|-----------------------|----------------| 
D|-----7----------------|--------7-----7--------|----7-----------| 
A|-(0)---7-6---5^6-5^6\-|-0--0-0----0----0-0-0--|(0)---7-6----6/-| 
E|----------------------|-----------------------|----------------| 
 
  % 
G|---------------------|--------------------------|--------------------------- 
D|---------------------|--------------------------|--------------------------- 
A|----7--7-7----7---7--|--------------------------|--------------------------- 
E|-0----------0---0----|-8--8-8--8--8----8-8-8-8--|-7--7-7--7--7----7-7-7-7\5- 
 
 
G|----------------------|----------------------|-------------------------| 
D|----------------------|----------------------|-------------------------| 
A|---------------7-7----|------7--7-7----7---7-|-------------------------| 
E|-5-5-3-2--1--0------5\|-0--0---------0---0---|-3--3-3--3--3----3-3-5-3-| 
 
                                              Bass Fill 1 
G|------------------------|------------------|-------------------| 
D|------------------------|------------------|-------------------| 
A|------------------------|------------------|-------------------| 
E|--2--2-2-2--2---2-2-3-2-|-1-1-1-1--1-1-1-1-|-1---------------X-| 
  ____________________________________________________  ____________ 
  w/Bass Fig.2(4x)                                    |/2. 
G|-----------------|-------------------|------6-------|---------------| 
D|-------===-------|--------===--------||===========|*|-w/Bass Fill 1-| 
 
  % 
G|---------------------|--------------------------|--------------------------- 
D|---------------------|--------------------------|--------------------------- 
A|----7--7-7----7---7--|--------------------------|--------------------------- 
E|-0----------0---0----|-8--8-8--8--8----8-8-8-8--|-7--7-7--7--7----7-7-7-7\5- 
 
 
G|----------------------|----------------------|-------------------------| 
D|----------------------|----------------------|-------------------------| 
A|---------------7-7----|------7--7-7----7---7-|-------------------------| 
E|-5-5-3-2--1--0------5\|-0--0---------0---0---|-3--3-3--3--3----3-3-5-3-| 
 
                                              Bass Fill 1 
G|------------------------|------------------|-------------------| 
D|------------------------|------------------|-------------------| 
A|------------------------|------------------|-------------------| 
E|--2--2-2-2--2---2-2-3-2-|-1-1-1-1--1-1-1-1-|-1---------------X-| 
  ____________________________________________________  ____________ 
  w/Bass Fig.2(4x)                                    |/2. 
G|-----------------|-------------------|------6-------|---------------| 
D|-------===-------|--------===--------||===========|*|-w/Bass Fill 1-| 
A|-------===-------|--------===--------|-------------*|---------------| 
E|-----------------|-------------------|--------------|---------------| 
  __________________________________________________________ 
  w/Bass Fig.2(4x) 
G|-----------------|-----------|-----------|----------------| 
D|-------===-------|----===----|----===----|-------===------| 
A|-------===-------|----===----|----===----|-------===------| 
E|-----------------|-----------|-----------|----------------| 
                             HALF TIME FEEL 
  ____________               w/Bass Fig.4 
G|------------|------3------|-------------|------------------| 
D|-----===----|-|=========|-|-----===-----|--------===-------| 
A|-----===----|-------------|-----===-----|--------===-------| 
E|------------|-------------|-------------|------------------| 
 
               w/Bass Fill 2  (end 1/2 time feel) w/Bass Fig.3    w/Bass Fill 
G|------------|----------------------X---------|--------4-------|--------r---- 
D|----===-----|------7---------------X---------||==============||--------e---- 
A|----===-----|----------7---6-------X---------|----------------|--------s---- 
E|------------|-(0)------------------X---------|----------------|-0------t---- 
 
  w/Bass Fig.1(4x)             w/Bass Fig.1(4x) 
G|--------7--------|----------|-------------------|------------------| 
D||===============||----==----|--------===--------|--------===-------| 
A|-----------------|----==----|--------===--------|--------===-------| 
E|-----------------|----------|-------------------|------------------| 
 
 
G|-------------------|-----------------|------------|-----------------| 
D|-------====--------|-------====------|----====----|-------===-------| 
A|-------====--------|-------====------|----====----|-------===-------| 
E|-------------------|-----------------|------------|-----------------| 
 
 
G|-------------------|-----------------|------------|-----------------| 
D|-------====--------|-------====------|----====----|-------===-------| 
A|-------====--------|-------====------|----====----|-------===-------| 
E|-------------------|-----------------|------------|-----------------| 
 
  w/Bass Fig.2(4x) 
G|------------------|-----------------|------------------| 
D|-------===--------|-------===-------|--------===-------| 
A|-------===--------|-------===-------|--------===-------| 
E|------------------|-----------------|------------------| 
 
 
G|------------------|-----------------|------------------| 
D|-------===--------|-------===-------|--------===-------| 
A|-------===--------|-------===-------|--------===-------| 
E|------------------|-----------------|------------------| 
 
                                                  D.S. Al Coda % 
G|---------------------------|----------------------------------| 
D|----------=====------------|---------------====---------------| 
A|----------=====------------|---------------====---------------| 
E|---------------------------|----------------------------------| 
   | 
  -0-To Coda 
   | 
G|---------------------|--------|-------|-------|----------------| 
D|---------------------|--------|-------|-------|----------------| 
A|---------------------|--------|-------|-------|----------------| 
E|1------------------X-|-0------|(0)----|(0)----|(0)-----X-X-----| 
 
  Outro 
  w/Bass Fig.2(4x) 
G|------------------|-----------------|-----------|-----------------| 
D|------=====-------|------=====------|----===----|-------===-------| 
A|------=====-------|------=====------|----===----|-------===-------| 
E|------------------|-----------------|-----------|-----------------| 
 
 
G|------------------|---------------|-----------|-----------------| 
D|------=====-------|----=====------|----===----|-------====------| 
A|------=====-------|----=====------|----===----|-------====------| 
E|------------------|---------------|-----------|-----------------| 
 
 
G|-------------|-----------------|-----------------|------------------|| 
D|-------------|-----------------|-----------------|------------------|| 
A|-------------|-----------------|-----------------|------------------|| 
E|-0-----------|(0)--------------|(0)--------------|(0)---------------|| 
 
 

	  

Search Paypal
auto scroll beats size up size down change color hide chords drawings
tab show chords e-chords YouTube Clip e-chords hide all tabs e-chords go to top tab