Metallica

Eye Of The Beholder (ver. 2) Tab

Metallica

Difficulty: nolevelnolevel

by victor%2Eh

tuner correct add songbook print version text version save to e-mail
chordsukulelecavacokeyboardtabbassdrumsharmonicsflute Guitar Pro
close

there isn't a video lesson for this song

request
chords

Eye Of The Beholder (ver. 2)

  		Repeat & fade from pp-ff                    14x  
||-------------------------------------------------||--||----------------------  
||-------------------------------------------------||--||----------------------  
||*-----------------------------------------------*||--||*---------------------  
||*--------------------------------------------9--*||--||*---------------------  
||---------------------------------------------7---||--||----------------------  
||---0--0--0--0--0--0--0--0--0-----0-----0--0--0---||--||---0--0--0--0--0------  
  
                                                                       4x  
------------------------------|------------------------------------------------  
------------------------------|------------------------------------------------  
------------------------------|------------------------------------------------  
------------------------------|------------------------------------------------  
------------------------------|------------------------------------------------  
0--0--0--3-----3-----3--3--3--|--2--2--2--2--2--2--2--2--2-----2-----2--2------  
  
  
----||--||-------------------------------------------||--||--------------------  
----||--||-------------------------------------------||--||--------------------  
---*||--||*-----------------------------------------*||--||*-------------------  
---*||--||*-----------------------------------------*||--||*-------------------  
----||--||-------------------------------------------||--||--------------------  
2---||--||---0--0--0-----0--0--0-----0--0--0--0--0---||--||---0--0--0-----0----  
  
  
----------------------||----------------------------------------|--||----------  
----------------------||----------------------------------------|--||----------  
---------------------*||----------------------------------------|--||*---------  
---------9--9--9--8--*||--------------------8h9p8---------------|--||*---------  
---------7--7--7--7---||------------------------------7h8p7-----|--||----------  
---0------------------||--0--0--0-----0--0---------0---------0--|--||---0------  
  
  
-------------------------------||----------------------------------------------  
-------------------------------||----------------------------------------------  
------------------------------*||----------------------------------------------  
------------------9--9--9--8--*||-----------------------8h9p8------------------  
------------------7--7--7--7---||---------------------------------7h8p7--------  
0--0-----0--0------------------||--0--0--0-----0--0------------0---------0-----  
  
                                            Rhy. Fig. 1  
|----------------------|-----------||--||--------------------------------------  
|----------------------|-----------||--||--------------------------------------  
|----------------------|-----------||--||*-------------------------------------  
|----------------------|--2-----2--||--||*-------------------------------------  
|----------------------|--2-----2--||--||--------------------------------------  
|--6h7p6--0--2h3p2--0--|--0-----0--||--||----0--0--0--0--0--0--0--0--3---------  
  
  
---------------|------------------------------------------------||-------------  
---------------|------------------------------------------------||-------------  
---------------|-----------------------------------------------*||-------------  
------------5--|--------------------------------------------4--*||-------------  
------------5--|--------------------------------------------4---||-------------  
3-----3--3--3--|--2--2--2--2--2--2--2--2--2-----2-----2--2--2---||--0--0--0----  
  
  
------------------------------------|------------------------------------------  
------------------------------------|------------------------------------------  
------------------------------------|------------------------------------------  
------------------------------------|------------------------------------------  
---------------------------------7--|------------------------------------------  
0--0--0--0--0--0-----0-----0--0--0--|--0--0--0--0--0--0--0--0--0-----0---------  
  
                   Rhy. Fig. 2  
---------||-----|-------------------------|------------------------|-----------  
---------||-----|-------------------------|------------------------|-----------  
---------||-----|------9--9--10--7--7--8--|-----9--9--10--7--7--8--|-----9-----  
---------||--4--|------9--9--10--7--7--8--|-----9--9--10--7--7--8--|-----9-----  
------7--||--4--|------7--7--8---5--5--6--|-----7--7--8---5--5--6--|-----7-----  
0--0--0--||--2--|---0---------------------|--0---------------------|--0--7-----  
  
  
----------------|------------------------|------------------------|------------  
----------------|------------------------|------------------------|------------  
9--10--7--7--8--|-----9--9--10--7--7--8--|-----9--9--10--7--7--8--|------------  
9--10--7--7--8--|-----9--9--10--7--7--8--|-----9--9--10--7--7--8--|--9---------  
7--8---5--5--6--|-----7--7--8---5--5--6--|-----7--7--8---5--5--6--|--7---------  
7--8---5--5--6--|--0--7--7--8---5--5--6--|--0--7--7--8---5--5--6--|--0---------  
  
  
------------------|--------------------|-----------------------|---------------  
------------------|--------------------|-----------------------|---------------  
------------------|--------------------|-----------------------|---------------  
---------------9--|--5--------------2--|-----------------------|---------------  
---------------7--|--5--------------2--|-----------------------|---------------  
0-----0-----0--0--|--3-----0--0--0--0--|--6--6--6-----3--3--3--|--5--5--5------  
  
  
------------------------------------|--------------||--||----------------------  
------------------------------------|--------------||--||----------------------  
------------------------------------|--------------||--||*---------------------  
------------------------------------|--4-----5--4--||--||*---------------------  
------------------------------------|--4-----5--4--||--||----------------------  
---3--3--3-----2--2--2-----3--3--3--|--2-----3--2--||--||---0--0--0--0--0------  
  
  
------------|-----------------------------|-----------------------------|------  
------------|-----------------------------|-----------------------------|------  
------------|-----------------------------|-----------------------------|------  
9--9--9--8--|-----------------9--9--9--8--|-----------------9--9--9--8--|------  
7--7--7--7--|-----------------7--7--7--7--|-----------------7--7--7--7--|------  
------------|--0--0--0--0--0--------------|--0--0--0--0--0--------------|------  
  
  
-----------------------------------------------------------||------------------  
-----------------------------------------------------------||------------------  
----------------------------------------------------------*||------------------  
---------------8h9p8-----------------------------------2--*||------------------  
-------------------------7h8p7-------------------------2---||------------------  
0--0--0--0--0---------0---------0--6h7p6--0--2h3p2--0--0---||------------------  
  
  
Go back and play next verse here.  
-------------------------------||--||--------------------------||--------------  
-------------------------------||--||--------------------------||--------------  
-------------------------------||--||*-----9--9--10--7--7--8--*||--------------  
-------------------------------||--||*-----9--9--10--7--7--8--*||--9-----------  
-------------------------------||--||------7--7--8---5--5--6---||--7-----------  
-------------------------------||--||---0--7--7--8---5--5--6---||--0-----0-----  
  
  
---------||------------------------|------------------------|------------------  
---------||------------------------|------------------------|------------------  
---------||-----9--9--10--7--7--8--|-----9--9--10--7--7--8--|------------------  
------9--||-----7--7--10--7--7--8--|-----9--9--10--7--7--8--|--9---------------  
------7--||-----7--7--8---5--5--6--|-----7--7--8---5--5--6--|--7---------------  
0--0--0--||--0---------------------|--0---------------------|--0-----0--0------  
  
  
------|-----|-----------------------------------|-----||-----------------------  
------|-----|-----------------------------------|-----||-----------------------  
------|-----|-----------------------------------|-----||-----------------------  
---9--|--2--|--5--------------------------------|--2--||-----------------------  
---7--|--2--|--5--2--2--2--2--2--2--2--2--2--2--|--2--||-----------------------  
0--0--|--0--|--3--0--0--0--0--0--0--0--0--0--0--|--0--||----------------------- 
 
 

	  

Search Paypal
auto scroll beats size up size down change color hide chords drawings
tab show chords e-chords YouTube Clip e-chords hide all tabs e-chords go to top tab

share with facebook