Metallica

home > Metallica

Enter sandman (solo) Tab

Metallica

Difficulty: ExpertExpert

by victor%2Eh

tuner correct add songbook print version text version save to e-mail
chordsukulelecavacokeyboardtabbassdrumsharmonicsflute Guitar Pro
chords

Enter sandman (solo)

  		Este solo foi tocado no show S&M!! :-) 
 
b=bend 
h=hammer on 
p=pull off 
~=vibrato 
~^-vibrato com a alavanca. 
 
|-----------------|---------------------------------| 
|-15-15---15b-----|---------------------------------| 
|-14-14-12--------|-12h14----12~----12h14----12~----| 
|-----------------|---------------------------------| 
|-----------------|---------------------------------| 
|-----------------|---------------------------------| 
 
|--------------------------|---12--12--12-| 
|--------------------------|-15--15--15---| 
|-14p12--------------------|--------------| 
|------14-14p12------------|--------------| 
|--------------14p12-------|--------------| 
|-------------------15-12--|--------------| 
 
|---12-15p12--12-15p12--12-15p12--12-14-----| 
|-15--------15--------15--------15----------| 
|-------------------------------------------| 
|-------------------------------------------| 
|-------------------------------------------| 
|-------------------------------------------| 
 
|---14-17p14--14-17p14-|---15-19p15--15-19p15-| 
|-15--------15---------|-17--------17---------| 
|----------------------|----------------------| 
|----------------------|----------------------| 
|----------------------|----------------------| 
|----------------------|----------------------| 
 
|---17-21p17-21p17-21p17-22b-------------| 
|-19-------------------------------------| 
|----------------------------------------| 
|----------------------------------------| 
|----------------------------------------| 
|----------------------------------------| 
 
|------------------------------------| 
|-9b-----9b-----9b-----9b-----9b-----| 
|-9b-----9b-----9b-----9b-----9b-----| 
|------------------------------------| 
|------------------------------------| 
|------------------------------------| 
 
|------------------|------------------------------------------------| 
|----------10~-----|-10-8-7--8p7------------------------------------| 
|-7------7---------|-------9----9p7--7-9p7--------------------------| 
|--9-7h9-----------|----------------9-----9p7--7-9p7----------------| 
|------------------|--------------------------9-----9-8-7-5-7-5-----| 
|------------------|-------------------------------------------7-5--| 
 
|-------------------------------------------| 
|-------------------------------------------| 
|-14-16b-----14--------14-16b-----14--------| 
|--------------16b------------------16b-----| 
|-------------------------------------------| 
|-------------------------------------------| 
( 2 vezes ) 
 
|-------------------------|-21p17-21p17-21p17-21p17-21p17-21p17-22b---22b---22b---22b-----| 
|-17-17-17-17-17-17~^-----|---------------------------------------------------------------| 
|-16-16-16-16-16-16~^-----|---------------------------------------------------------------| 
|-------------------------|---------------------------------------------------------------| 
|-------------------------|---------------------------------------------------------------| 
|-------------------------|---------------------------------------------------------------| 
 
|-5p3p0---------------------|---------------------------------| 
|------5-5p3p0--------------|---------------------------------| 
|-------------4p2p0-2~^-----|-0-------------------------------| 
|---------------------------|--2~^-----2p0-2------------------| 
|---------------------------|---------------4~^-----0-2~^-----| 
|---------------------------|---------------------------------| 
 
 
 

	  

Search Paypal
auto scroll beats size up size down change color hide chords drawings
tab show chords e-chords YouTube Clip e-chords hide all tabs e-chords go to top tab