Metallica

home > Metallica

Enter Sandman (James Hetfield) Tab

Metallica

Difficulty: ExpertExpert

by rokr

tuner correct add songbook print version text version save to e-mail
chordsukulelecavacokeyboardtabbassdrumsharmonicsflute Guitar Pro
chords

Enter Sandman (James Hetfield)

  		Intro: 
D|------5---------------5-----| 
A|---7---------7-----7--------| 
E|0--------6-5----0--------6-5|  x6 

Rythm Fill 1:              |x3-----------------| 
A|2--------------------/7--------------------/7| 
E|0--0--0--0--0--0--0------0--0--0--0--0--0----| 
 P.M.----------------|slide|P.M.-----------|slide 

  |x4------------------|   |x8------------------| 
A|------7-------------3----------7--------------3| 
E|0--0----6--0--0--0--1----0--0----6--5--0--0---1| 
 |P.M.|      |P.M.--|      |P.M.|        |P.M.--| 

Rythm Fill 2: 
  |x3---------| 
A|2--2---7-------5--0--5--0--5--0--4--2| 
E|0--0-----6-5---3--0--3--0--3--0--2--0| 
                 |P.M.------------| 

Rythm Fill 3: 

A|2--------------------3---------------------3| 
E|0--0--0--0--0--0--0--1---0--0--0--0--0--0--1| 
     |P.M.------------|    |P.M.------------| 

A|------------------5--0--5--0--5--0--4--2| 
E|0--0--0--0--0--0--3--0--3--0--3--0--2--0| 
  |P.M.------------------------------| 

Bridge:       Chorus Fill: 
  |x4------|   |x4-----------| 
D|---------|  |--------5--4------ 
A|0--9-----|  |---4----3--2--2---5--0--5--0--5--0--4--2| 
E|-----8--7|  |---2----------0---3--0--3--0--3--0--2--0| 
                                 |P.M.---------------| 

Rythm Fill 2 
Rythm Fill 3 
Bridge 
Chorus Fill 
Solo 
Rythm Fill 2 
Rythm Fill 3 
Bridge 
Chorus Fill 
Intro x8 
Bridge x8 
Chorus Fill x2 
Rythm Fill 2 x2 
OHH! 
Rythm Fill 2 x4 
Rythm Fill 1 in reverse order (outro) 

Have fun with this awesome metal lullaby!! 

	  

Search Paypal
auto scroll beats size up size down change color hide chords drawings
tab show chords e-chords YouTube Clip e-chords hide all tabs e-chords go to top tab