Me

My song

Me

tabs

by  JACKM21

save to print version add songbook text version e-mail correct tuner
chordsukulelecavacokeyboardtabbassdrumsharmonicaflute Guitar Pro
close

there isn't a video lesson for this song

chords

My song

	  		Intro1: Bass x2 
 
Intro 
E|-------------------------------------------------------------------------------| 
B|-------------------------------------------------------------------------------| 
G|-------------------------------------------------------------------------------|  X4 
D|-----4----7---------6---0------------------------------------------------------| 
A|----4------7-------6-----0-----------------------------------------------------| 
E|---2---------5----4--------0---------------------------------------------------| 
 
Verse: em--------BM-------c-----g X2 
 
Intro 
 
Chorus:  
 
E|-------------------------------------------------------------------------------| 
B|-------------------------------------------------------------------------------| 
G|-------------------------------------------------------------------------------| 
D|-------6--8--------3-----------------------------------------------------------|  X 2 
A|------6----8------4------------------------------------------------------------| 
E|-----4-------6---2-------------------------------------------------------------| 
 
VERSE 
 
Chorus 
 
Intro 
 
Solo 
 
E|-------999--5--3-5-6-9-11----------------------------------------------------------------| 
B|-------------------------------------------------------------------------------| 
G|-------------------------------------------------------------------------------| X2 
D|-------------------------------------------------------------------------------| 
A|-------------------------------------------------------------------------------| 
E|--------------------------------------------------------------------------------| 
 
Chorus X2 finish on G 
 
im still tryin 2 make sum lyrics. tell me wat u fink 

		  

Full key step upFull key step up
Half key step upHalf key step up
Half key step downHalf key step down
Full key step downFull key step down
hide glossary

See also:

tabs Van Halen - Pretty Woman tabs Guns N' Roses - Wild Horses tabs The Doors - People Are Strange tabs Guns N' Roses - Sweet Child o' mine tabs Jack Johnson - Good People tabs Simon & Garfunkel - Sounds of silence
e-chords

Other versions:

tabs Me - My song tabs Big Time Rush - My Song For You
auto scroll beats size up size down change color hide chords drawings
tab show chords e-chords YouTube Clip e-chords hide all tabs e-chords go to top tab

share