Me

My song

Me

bass

by  JACKM21

save to print version add songbook text version e-mail correct tuner
chordsukulelecavacokeyboardtabbassdrumsharmonicaflute Guitar Pro
close

there isn't a video lesson for this song

chords

My song

	  		BASS: 
 
 
INTRO1: 
G|-------------------------------------------------------------------------------| 
D|-------------------------------------------------------------------------------| 
A|-------------------------------------------------------------------------------| 
D|--222--555-444-0----------------------------------------------------------| 
 
INTRO: 
G|-------------------------------------------------------------------------------| 
D|-------------------------------------------------------------------------------| 
A|-------------------------------------------------------------------------------| 
D|--222--555--444---000------------------------------------------------------| X4 
 
VERSE 1:  
G|-------------------------------------------------------------------------------| 
D|-------------------------------------------------------------------------------| 
A|-------------------------------------------------------------------------------| 
D|-----2-2-2-2-----5-5-5-5--4-4-4-4-0-0-0-0------------------------------| 
 
 
INTRO 
 
 
Chorus: 
 
G|-------------------------------------------------------------------------------------| 
D|------4-------6-----2-----------------------------------------------------------------| 
A|-----4--------6------2----------------------------------------------------------------| X2 
D|----4---------6-------2----------------------------------------------------------------| 
 
INTRO 
 
Solo : 
 
G|-------------------------------------------------------------------------------| 
D|-------------------------------------------------------------------------------|X3 
A|-------------------------------------------------------------------------------| 
D|------2222--3333-1111----------------------------------------------------------------------| 
 
 
Chorus X 2 
 

		  

See also:

bass Elvis Presley - All Shook Up bass Creed - Higher bass The Darkness - I Believe In A Thing Called Love bass Creed - One Last Breath bass Creed - One Last Breath( ver. 2) bass Live - Pain Lies On The Riverside
e-chords

Other versions:

bass Me - My song
auto scroll beats size up size down change color hide chords drawings
tab show chords e-chords YouTube Clip e-chords hide all tabs e-chords go to top tab

share