Max Milner

Like Me Slightly

Max Milner

tabs Advanced advanced

by  BOMBAXXX

save to print version add songbook text version e-mail correct tuner
chordsukulelecavacokeyboardtabbassdrumsharmonicaflute Guitar Pro
close

there isn't a video lesson for this song

chords

Like Me Slightly

	  		

Standard tuning 
 
Capo on the 2nd fret 


Intro 
e|----------0------------------0----------------0--------------0-------------| 
B|----------0------------------0----------------0--------------0-------------| 
G|-----11--11--11\8--8------8--8--8\6--6-----6--6--6--6-----6--6--6/11--11---| 
D|---------------------------------------------------------------------------| 
A|---------------------------------------------------------------------------| 
E|--0--------------------7----------------5--------------5-------------------| 

e|----------0------------------0----------------0--------------0-------------| 
B|----------0------------------0----------------0--------------0-------------| 
G|-----11--11--11\8--8------8--8--8\6--6-----6--6--6--6-----6--6--6/11--11---| 
D|---------------------------------------------------------------------------| 
A|---------------------------------------------------------------------------| 
E|--0--------------------7----------------5--------------5-------------------| 

Verse 
e|----------0------------------0----------------0--------------0-------------| 
B|----------0------------------0----------------0--------------0-------------| 
G|-----11--11--11\8--8------8--8--8\6--6-----6--6--6--6-----6--6--6/11--11---| 
D|---------------------------------------------------------------------------| 
A|---------------------------------------------------------------------------| 
E|--0--------------------7----------------5--------------5-------------------| 

e|----------0------------------0----------------0--------------0-------------| 
B|----------0------------------0----------------0--------------0-------------| 
G|-----11--11--11\8--8------8--8--8\6--6-----6--6--6--6-----6--6--6/11--11---| 
D|---------------------------------------------------------------------------| 
A|---------------------------------------------------------------------------| 
E|--0--------------------7----------------5--------------5-------------------| 

e|----------0------------------0----------------0--------------0-------------| 
B|----------0------------------0----------------0--------------0-------------| 
G|-----11--11--11\8--8------8--8--8\6--6-----6--6--6--6-----6--6--6\5--5-----| 
D|---------------------------------------------------------------------------| 
A|---------------------------------------------------------------------------| 
E|--0--------------------7----------------5--------------5-------------------| 

e|-----0----------------0----------------------------------0--------------0--| 
B|-----0----------------0----------------------------------0--------------0--| 
G|-----5--5--5--5----5--5--5\4--4-----4--4-----3--3-----2--2--2--2-----2--2--| 
D|---------------------------------------------------------------------------| 
A|---------------------------------------------------------------------------| 
E|--5-------------5----------------4--------3--------2--------------2--------| 


e|----------0------------------0----------------0--------------0-------------| 
B|----------0------------------0----------------0--------------0-------------| 
G|-----11--11--11\8--8------8--8--8\6--6-----6--6--6--6-----6--6--6/11--11---| 
D|---------------------------------------------------------------------------| 
A|---------------------------------------------------------------------------| 
E|--0--------------------7----------------5--------------5-------------------| 

Whole song pretty much goes like this!! 
		  

See also:

tabs Toto - Kingdom Of Desire tabs Craig David - 7 Days tabs Simply Red - For yours babies tabs Genesis - Musical Box tabs Kenny G - Dying Young tabs Genesis - Cinema Show
e-chords

Other versions:

tabs Max Milner - Like Me Slightly
auto scroll beats size up size down change color hide chords drawings
tab show chords e-chords YouTube Clip e-chords hide all tabs e-chords go to top tab

share