Matt Maher

home > Matt Maher

The End And The Beginning Tab

Matt Maher

Difficulty: nolevelnolevel

by carlluz

tuner correct add songbook print version text version save to e-mail
chordsukulelecavacokeyboardtabbassdrumsharmonicsflute Guitar Pro
chords

The End And The Beginning

  		 

Intro: 
 (Acoustic) 
   D                                         Bm A 
|------------------------------------------------------------| 
|------------------------------------------------------------| 
|------------------------------------------------------------| 
|--0---4--5---0-0--4--5-----0---4--5--0-0-4-5--9-7-----------| (X2) 
|--0---4--5---0-0--4--5-----0---4--5--0-0-4-5--9-7-----------| 
|--0---4--5---0-0--4--5-----0---4--5--0-0-4-5--9-7-----------| 


 (Whole Band comes in on the D!) 
   D                                         Bm A 
|------------------------------------------------------------| 
|------------------------------------------------------------| 
|------------------------------------------------------------| 
|--0---4--5---0-0--4--5-----0---4-5--0-0-4-5--9-7------------| (X2) 
|--0---4--5---0-0--4--5-----0---4-5--0-0-4-5--9-7------------| 
|--0---4--5---0-0--4--5-----0---4-5--0-0-4-5--9-7------------| 

verse 1: 
(No Acoustic-Synth or Piano) 
   G               Bm         A 
|----------------------------------------------| 
|----------------------------------------------| 
|----------------------------------------------| 
|----------------------------------------------| 
|----------------------------------------------| 
|----------------------------------------------| 
.........Transubstantiation..................... 

(Acoustic and drums come in, p) 
   G               Bm         A 
|-------3--------------------------------------| 
|-------3--------------3----------2------------|      (Author's Note: You could just) 
|-------0--------------4----------2------------|      (..play open chords instead...) 
|-------0-(Hold)-------4----------2------------| (X2) 
|-------2----------2-2--------0-0--------------| 
|--5-5-----------------------------------------| 
.......Heaven kisses Earth...................... 
.......We become the living..................... 

   G               Bb         A 
|-----------------------------------------| 
|-----------------------------------------| 
|-------4---------------------------------| 
|-------5-(Hold)----8-8-8-8-7-7-7-7-------| 
|-------5-----------8-8-8-8-7-7-7-7-------| 
|--5-5--------------8-8-8-8-7-7-7-7-------| 
.............Tabernacle..(hold)............ 

PreChorus 1: 
  D  Em     Fm     G        A      G      Fm     D 
|-------------------------------------------------------------| 
|-------------------------------------------------------------| 
|-------------------------------------------------------------| 
|-0--2-2-2--4-4-4--5-5-5-5--7-7-7--5-5-5--4-4-4--0-0-2h4------| 
|-0--2-2-2--4-4-4--5-5-5-5--7-7-7--5-5-5--4-4-4--0-0-2h4------| 
|-0--2-2-2--4-4-4--5-5-5-5--7-7-7--5-5-5--4-4-4--0-0-2h4------| 

  D  Em     Fm     G        A      Bb            C 
|-------------------------------------------------------------| 
|-------------------------------------------------------------| 
|-------------------------------------------------------------| 
|-0--2-2-2--4-4-4--5-5-5-5--7-7-7--8-8-8-8-8-8---10-10-10-----| 
|-0--2-2-2--4-4-4--5-5-5-5--7-7-7--8-8-8-8-8-8---10-10-10-----| 
|-0--2-2-2--4-4-4--5-5-5-5--7-7-7--8-8-8-8-8-8---10-10-10-----| 

(Palm Mute) 
  D  Em     Fm     G        A      G      Fm     D 
|-------------------------------------------------------------| 
|-------------------------------------------------------------| 
|-------------------------------------------------------------| 
|-0--2-2-2--4-4-4--5-5-5-5--7-7-7--5-5-5--4-4-4--0-0-2h4-0----| 
|-0--2-2-2--4-4-4--5-5-5-5--7-7-7--5-5-5--4-4-4--0-0-2h4-0----| 
|-0--2-2-2--4-4-4--5-5-5-5--7-7-7--5-5-5--4-4-4--0-0-2h4-0----| 
.....So wisdom, be attentive...Steady my shaken mind........... 

(Palm Mute) 
  D  Em     Fm     G        A      Bb            C 
|-------------------------------------------------------------| 
|-------------------------------------------------------------| 
|-------------------------------------------------------------| 
|-0--2-2-2--4-4-4--5-5-5-5--7-7-7--8-8-8-8-8-8---10-10-10-----| 
|-0--2-2-2--4-4-4--5-5-5-5--7-7-7--8-8-8-8-8-8---10-10-10-----| 
|-0--2-2-2--4-4-4--5-5-5-5--7-7-7--8-8-8-8-8-8---10-10-10-----| 
....Let this be my reality..More than just bread and wine...... 

Chorus 1: 
   G       A       D        F#m 
|--------------------------------------| 
|--------------------------------------| 
|------------------7-7-7-7-------------| 
|--5-5-5---7-7-7---7-7-7-7--4-4-4-4----| (X3) 
|--5-5-5---7-7-7---5-5-5-5--4-4-4-4----| 
|--5-5-5---7-7-7------------4-4-4-4----| 
..........This the end and the beginning..... 
..........This is the eighth day of creation. 
..........One with the saints and angels..... 


   G       A 
|----------------| 
|----------------| 
|----------------| 
|--5-5-5---7-7-7-| 
|--5-5-5---7-7-7-| 
|--5-5-5---7-7-7-| 
...In our song....of thanksgiving.. 


   D                                         Bm A 
|------------------------------------------------------------| 
|------------------------------------------------------------| 
|------------------------------------------------------------| 
|--0---4--5---0-0--4--5-----0---4-5--0-0-4-5--9-7------------| (X2) 
|--0---4--5---0-0--4--5-----0---4-5--0-0-4-5--9-7------------| 
|--0---4--5---0-0--4--5-----0---4-5--0-0-4-5--9-7------------| 
.(hold)....................................................... 

verse 2: 
   G               Bm         A 
|----------------------------------------------| 
|----------------------------------------------| 
|----------------------------7---------6-------| 
|--5-5-5-5-5-5-(Hold)--------9---------7-------| 
|--5-5-5-5-5-5---------------9---------7-------| 
|--5-5-5-5-5-5----------9-9-------7-7----------| 
............Revelation.......................... 


   G               Bm         A 
|----------------------------------------------| 
|----------------------------------------------| 
|-------4---------------7---------6------------| 
|-------5-(Hold)--------9---------7------------| (X2) 
|-------5---------------9---------7------------| 
|--5-5--------------9-9-------7-7--------------| 
...........History shows the love............... 
...........Of the ancient Father................ 

   G               Bb         A 
|-----------------------------------------| 
|-----------------------------------------| 
|-------4---------------------------------| 
|-------5-(Hold)----8-8-8-8-7-7-7-7-------| 
|-------5-----------8-8-8-8-7-7-7-7-------| 
|--5-5--------------8-8-8-8-7-7-7-7-------| 
.............For His one and only Son...... 

PreChorus 2: 

(Palm Mute) 
  D  Em     Fm     G        A      G      Fm     D 
|-------------------------------------------------------------| 
|-------------------------------------------------------------| 
|-------------------------------------------------------------| 
|-0--2-2-2--4-4-4--5-5-5-5--7-7-7--5-5-5--4-4-4--0-0-2h4------| 
|-0--2-2-2--4-4-4--5-5-5-5--7-7-7--5-5-5--4-4-4--0-0-2h4------| 
|-0--2-2-2--4-4-4--5-5-5-5--7-7-7--5-5-5--4-4-4--0-0-2h4------| 
.....Jesus, I am not worthy........I am a broken man........... 

(Palm Mute) 
  D  Em     Fm     G        A      Bb            C 
|-------------------------------------------------------------| 
|-------------------------------------------------------------| 
|-------------------------------------------------------------| 
|-0--2-2-2--4-4-4--5-5-5-5--7-7-7--8-8-8-8-8-8---10-10-10-----| 
|-0--2-2-2--4-4-4--5-5-5-5--7-7-7--8-8-8-8-8-8---10-10-10-----| 
|-0--2-2-2--4-4-4--5-5-5-5--7-7-7--8-8-8-8-8-8---10-10-10-----| 
....But only say the word and I shall be healed again.......... 

Chorus 2: 
   G       A       D        F#m 
|--------------------------------------| 
|--------------------------------------| 
|------------------7-7-7-7-------------| 
|--5-5-5---7-7-7---7-7-7-7--4-4-4-4----| (X3) 
|--5-5-5---7-7-7---5-5-5-5--4-4-4-4----| 
|--5-5-5---7-7-7------------4-4-4-4----| 
...This is the end and the beginning... 
...This is the eighth day of creation.. 
...One with the saints and angels...... 


   G       A 
|--------------------------2-| 
|--------------------------3-| 
|--------------------------2-| 
|--5-5-5---7-7-7-----------0-| 
|--5-5-5---7-7-7-----------0-| 
|--5-5-5---7-7-7-----------0-| 
...In our song....of thanksgiving 

Bridge: 
Heavy Keyboard 
   D             G 
|----------------3------------| 
|-----------------3-----------| 
|------------------0----------| (Author's Note: Slow upstroke is entirely optional) 
|-(Hold D)----------0---------| 
|--------------------2--------| 
|---------------------x-------| 
-ing.......................... 

Heavy Keyboard/Maybe Acoustic 
   D           Bm     A 
|--2--------------------------| 
|---3----------3------2-------| 
|----2---------4------2-------| 
|-----0--------4------2-------| 
|------0-------2------0-------| 
|-------0---------------------| 

   D           G 
|--2-----------3------------| 
|--3------------3-----------| 
|--2-------------0----------| (Author's Note: Personally, I would repeat the bridge) 
|--0--------------0---------| (to taste, using the D G-D Bm A progression to build) 
|--0---------------2--------| (up tension.........................................) 
|--0----------------x-------| 
...Holy is the Lamb.......... 

Heavy Keyboard 
   D           Bm     A       D 
|--2--------------------------2----------| 
|---3----------3------2-------3----------| 
|----2---------4------2-------2--(Hold)--| 
|-----0--------4------2-------0----------| 
|------0-------2------0-------0----------| 
|-------0---------------------0----------| 
...Holy is the Lamb!!!.................... 


Instrumental Beat Down: 
(Full Band) 
  D  Em     Fm     G        A      G      Fm     D 
|-------------------------------------------------------------| 
|-------------------------------------------------------------| 
|-------------------------------------------------------------| 
|-0--2-2-2--4-4-4--5-5-5-5--7-7-7--5-5-5--4-4-4--0-0-2h4-0----| 
|-0--2-2-2--4-4-4--5-5-5-5--7-7-7--5-5-5--4-4-4--0-0-2h4-0----| 
|-0--2-2-2--4-4-4--5-5-5-5--7-7-7--5-5-5--4-4-4--0-0-2h4-0----| 

  D  Em     Fm     G        A      Bb            C 
|-------------------------------------------------------------| 
|-------------------------------------------------------------| 
|-------------------------------------------------------------| 
|-0--2-2-2--4-4-4--5-5-5-5--7-7-7--8-8-8-8-8-8---10-10-10-----| 
|-0--2-2-2--4-4-4--5-5-5-5--7-7-7--8-8-8-8-8-8---10-10-10-----| 
|-0--2-2-2--4-4-4--5-5-5-5--7-7-7--8-8-8-8-8-8---10-10-10-----| 

Chorus 3: 
(Full band sings) 
   G       A       D        F#m 
|--------------------------------------| 
|--------------------------------------| 
|------------------7-7-7-7-------------| 
|--5-5-5---7-7-7---7-7-7-7--4-4-4-4----| (X3) 
|--5-5-5---7-7-7---5-5-5-5--4-4-4-4----| 
|--5-5-5---7-7-7------------4-4-4-4----| 
...This is the end and the beginning.... 
...This is the eighth day of creation... 
...One with the saints and angels....... 


   G       A 
|----------------| 
|----------------| 
|----------------| 
|--5-5-5---7-7-7-| 
|--5-5-5---7-7-7-| 
|--5-5-5---7-7-7-| 
...In our song....of thanksgiving 


   D                                         Bm A 
|------------------------------------------------------------| 
|------------------------------------------------------------| 
|------------------------------------------------------------| 
|--0---4--5---0-0--4--5-----0---4-5--0-0-4-5--9-7------------| (X2) 
|--0---4--5---0-0--4--5-----0---4-5--0-0-4-5--9-7------------| 
|--0---4--5---0-0--4--5-----0---4-5--0-0-4-5--9-7------------| 
.(hold)..........................................Our Thanksgiving! 

End on D! 
   D 
|--2--------------| 
|--3--------------| 
|--2--------------| 
|--0--------------| 
|--0--------------| 
|--0--------------| 


 
	  

Full key step upFull key step up
Half key step upHalf key step up
Half key step downHalf key step down
Full key step downFull key step down
Search Paypal
auto scroll beats size up size down change color hide chords drawings
tab show chords e-chords YouTube Clip e-chords hide all tabs e-chords go to top tab