Maroon 5

home > Maroon 5

Woman Tab

Maroon 5

Difficulty: BeginnerBeginner

by pumland

tuner correct add songbook print version text version save to e-mail
chordsukulelecavacokeyboardtabbassdrumsharmonicsflute Guitar Pro
chords

Woman

  		 
 
Verse: 
g|----------------------------------| 
d|----------------------------------| 
a|------------------3-5-5-3-5-3-5-3-| 
e|-5-5-3-5-3-5--3-5-----------------| 
 
g|----------------------------------| 
d|----------------------------------| 
a|-3-5-7-5-5-3-5-3-5----------------| 
e|-------------------3-33-55-3-5----| 
 
g|------------| 
d|--32-32-3---| 
a|------------| 
e|------------| 
 
Unfortunately I do not have my guitar in front of me now, 
but i will add the Chorus and the bridge later.  The lead 
guitar also plays most of this riff.  Just listen to the  
track on the cd for the timing. Thanks, 
~Patrick Umland 

	  

Search Paypal
auto scroll beats size up size down change color hide chords drawings
tab show chords e-chords YouTube Clip e-chords hide all tabs e-chords go to top tab