Maroon 5

home > Maroon 5

Goodnight Good Night Tab

Maroon 5

Difficulty: AdvancedAdvanced

by gustsilva

tuner correct add songbook print version text version save to e-mail
chordsukulelecavacokeyboardtabbassdrumsharmonicsflute Guitar Pro
chords

Goodnight Good Night

  		---------- 
INTRO (Dedilhado) 
---------- 

 
e|---------------------------------|---------------------------------| 
B|-------3---------------2---------|---------------------------------| 
G|-----4-----4---4-----4-----4---4-|-------7---------------6---4-----| 
D|---4---------4-----4---------4---|-----5-----5---5-----5-------5---| 
A|-2---------------2---------------|---5---------5-----5-----------5-| 
E|---------------------------------|-3---------------3---------------| 
 

---------- 
VERSE 
---------- 

"You left me hanging..." "I lick my wounds..." 
 
e|---------------------------------|---------------------------------| 
B|-------3---------------2---------|---------------------------------| 
G|-----4-----4---4-----4-----4---4-|-------7---------------6---4-----| 
D|---4---------4-----4---------4---|-----5-----5---5-----5-------5---| 
A|-2---------------2---------------|---5---------5-----5-----------5-| 
E|---------------------------------|-3---------------3---------------| 
 

"Somethings got to change..." "Her hair was pressed..." 
 
e|---------------------------------|---------------------------------| 
B|-------7-------------------------|-------3---------------2---------| 
G|-----7-----7-----------7---------|-----4-----4---4-----4-----4---4-| 
D|---7---------7-------7-----7-----|---4---------4-----4---------4---| 
A|-5-------------5---7---------7---|-2---------------2---------------| 
E|-----------------9-------------9-|---------------------------------| 
 

"Enraged by things undsaid..." "Somethings got to change..." 
 
e|---------------------------------|---------------------------------| 
B|---------------------------------|-------7-------------------------| 
G|-------7---------------6---4-----|-----7-----7-----------7---------| 
D|-----5-----5---5-----5-------5---|---7---------7-------7-----7-----| 
A|---5---------5-----5-----------5-|-5-------------5---7---------7---| 
E|-3---------------3---------------|-----------------9-------------9-| 
 

"Oh..." 
 
e|-5-5-5-5-5-5-5-5-| 
B|-5-5-5-5-5-5-5-5-| 
G|-7-7-7-7-7-7-7-7-| 
D|-7-7-7-7-7-7-7-7-| 
A|-7-7-7-7-7-7-7-7-| 
E|-5-5-5-5-5-5-5-5-| 
 

---------- 
Chorus 
---------- 

"I'm sorry..." "To hurt..." 
 
e|---------------------------------|---------------------------------| 
B|-7-7-7-7-7-7-7-7-7-7-7-7-7-7-7-7-|-8-8-8-8-8-8-8-8-8-8-8-8-8-8-8-8-| 
G|-7-7-7-7-7-7-7-7-7-7-7-7-7-7-7-7-|-9-9-9-9-9-9-9-9-9-9-9-9-9-9-9-9-| 
D|-7-7-7-7-7-7-7-7-7-7-7-7-7-7-7-7-|-9-9-9-9-9-9-9-9-9-9-9-9-9-9-9-9-| 
A|-5-5-5-5-5-5-5-5-5-5-5-5-5-5-5-5-|-7-7-7-7-7-7-7-7-7-7-7-7-7-7-7-7-| 
E|---------------------------------|---------------------------------| 
 

"It's beyond me..." "The weight..." 
 
e|---------------------------------|---------------------------------| 
B|-7-7-7-7-7-7-7-7-7-7-7-7-7-7-7-7-|-8-8-8-8-8-8-8-8-8-8-8-8-8-8-7-8-| 
G|-7-7-7-7-7-7-7-7-7-7-7-7-7-7-7-7-|-9-9-9-9-9-9-9-9-9-9-9-9-9-9-7-9-| 
D|-7-7-7-7-7-7-7-7-7-7-7-7-7-7-7-7-|-9-9-9-9-9-9-9-9-9-9-9-9-9-9-7-9-| 
A|-5-5-5-5-5-5-5-5-5-5-5-5-5-5-5-5-|-7-7-7-7-7-7-7-7-7-7-7-7-7-7-5-7-| 
E|---------------------------------|---------------------------------| 
 

"Goodnight, goodnight..." 
 
e|-----------------------------------------| 
B|-12-12-12-10-10-10-10-10-8-8-8-7-7-7-7-7-| 
G|-12-12-12-11-11-11-11-11-9-9-9-7-7-7-7-7-| 
D|-12-12-12-11-11-11-11-11-9-9-9-7-7-7-7-7-| 
A|-10-10-10-9--9--9--9--9--7-7-7-5-5-5-5-5-| 
E|-----------------------------------------| 
 

 
e|-----------------------------------------| 
B|-12-12-12-10-10-10-10-10-8-8-8-7-7-7-7-7-| 
G|-12-12-12-11-11-11-11-11-9-9-9-7-7-7-7-7-| 
D|-12-12-12-11-11-11-11-11-9-9-9-7-7-7-7-7-| 
A|-10-10-10-9--9--9--9--9--7-7-7-5-5-5-5-5-| 
E|-----------------------------------------| 
 

"Hope that things..." 
 
e|---------------------------------| 
B|-5-5-5-5-5-5-5-5-5-5-5-5-5-5-5-5-| 
G|-6-6-6-6-6-6-6-6-6-6-6-6-6-6-6-6-| 
D|-7-7-7-7-7-7-7-7-7-7-7-7-7-7-7-7-| 
A|-4-4-4-4-4-4-4-4-4-4-4-4-4-4-4-4-| 
E|---------------------------------| 
 

---------- 
PRE-VERSE 
---------- 

 
e|---------------------------------|---------------------------------| 
B|-------3---------------2---------|---------------------------------| 
G|-----4-----4---4-----4-----4---4-|-------7---------------6---4-----| 
D|---4---------4-----4---------4---|-----5-----5---5-----5-------5---| 
A|-2---------------2---------------|---5---------5-----5-----------5-| 
E|---------------------------------|-3---------------3---------------| 
 

---------- 
VERSE 
---------- 

"The room was silent..." "The way it feels..." 
 
e|---------------------------------|---------------------------------| 
B|-------3---------------2---------|---------------------------------| 
G|-----4-----4---4-----4-----4---4-|-------7---------------6---4-----| 
D|---4---------4-----4---------4---|-----5-----5---5-----5-------5---| 
A|-2---------------2---------------|---5---------5-----5-----------5-| 
E|---------------------------------|-3---------------3---------------| 
 

"Somethings got to change..." "You make me think..." 
 
e|---------------------------------|---------------------------------| 
B|-------7-------------------------|-------3---------------2---------| 
G|-----7-----7-----------7---------|-----4-----4---4-----4-----4---4-| 
D|---7---------7-------7-----7-----|---4---------4-----4---------4---| 
A|-5-------------5---7---------7---|-2---------------2---------------| 
E|-----------------9-------------9-|---------------------------------| 
 

"I wake up every..." "Somethings gotta..." 
 
e|---------------------------------|---------------------------------| 
B|---------------------------------|-------7-------------------------| 
G|-------7---------------6---4-----|-----7-----7-----------7---------| 
D|-----5-----5---5-----5-------5---|---7---------7-------7-----7-----| 
A|---5---------5-----5-----------5-|-5-------------5---7---------7---| 
E|-3---------------3---------------|-----------------9-------------9-| 
 

"Oh..." 
 
e|-5-5-5-5-5-5-5-5-| 
B|-5-5-5-5-5-5-5-5-| 
G|-7-7-7-7-7-7-7-7-| 
D|-7-7-7-7-7-7-7-7-| 
A|-7-7-7-7-7-7-7-7-| 
E|-5-5-5-5-5-5-5-5-| 
 

---------- 
Chorus 
---------- 

"I'm sorry..." "To hurt..." 
 
e|---------------------------------|---------------------------------| 
B|-7-7-7-7-7-7-7-7-7-7-7-7-7-7-7-7-|-8-8-8-8-8-8-8-8-8-8-8-8-8-8-8-8-| 
G|-7-7-7-7-7-7-7-7-7-7-7-7-7-7-7-7-|-9-9-9-9-9-9-9-9-9-9-9-9-9-9-9-9-| 
D|-7-7-7-7-7-7-7-7-7-7-7-7-7-7-7-7-|-9-9-9-9-9-9-9-9-9-9-9-9-9-9-9-9-| 
A|-5-5-5-5-5-5-5-5-5-5-5-5-5-5-5-5-|-7-7-7-7-7-7-7-7-7-7-7-7-7-7-7-7-| 
E|---------------------------------|---------------------------------| 
 

"It's beyond me..." "The weight..." 
 
e|---------------------------------|---------------------------------| 
B|-7-7-7-7-7-7-7-7-7-7-7-7-7-7-7-7-|-8-8-8-8-8-8-8-8-8-8-8-8-8-8-7-8-| 
G|-7-7-7-7-7-7-7-7-7-7-7-7-7-7-7-7-|-9-9-9-9-9-9-9-9-9-9-9-9-9-9-7-9-| 
D|-7-7-7-7-7-7-7-7-7-7-7-7-7-7-7-7-|-9-9-9-9-9-9-9-9-9-9-9-9-9-9-7-9-| 
A|-5-5-5-5-5-5-5-5-5-5-5-5-5-5-5-5-|-7-7-7-7-7-7-7-7-7-7-7-7-7-7-5-7-| 
E|---------------------------------|---------------------------------| 
 

"Goodnight, goodnight..." 
 
e|-----------------------------------------| 
B|-12-12-12-10-10-10-10-10-8-8-8-7-7-7-7-7-| 
G|-12-12-12-11-11-11-11-11-9-9-9-7-7-7-7-7-| 
D|-12-12-12-11-11-11-11-11-9-9-9-7-7-7-7-7-| 
A|-10-10-10-9--9--9--9--9--7-7-7-5-5-5-5-5-| 
E|-----------------------------------------| 
 

 
e|-----------------------------------------| 
B|-12-12-12-10-10-10-10-10-8-8-8-7-7-7-7-7-| 
G|-12-12-12-11-11-11-11-11-9-9-9-7-7-7-7-7-| 
D|-12-12-12-11-11-11-11-11-9-9-9-7-7-7-7-7-| 
A|-10-10-10-9--9--9--9--9--7-7-7-5-5-5-5-5-| 
E|-----------------------------------------| 
 

"Hope that things..." 
 
e|---------------------------------| 
B|-5-5-5-5-5-5-5-5-5-5-5-5-5-5-5-5-| 
G|-6-6-6-6-6-6-6-6-6-6-6-6-6-6-6-6-| 
D|-7-7-7-7-7-7-7-7-7-7-7-7-7-7-7-7-| 
A|-4-4-4-4-4-4-4-4-4-4-4-4-4-4-4-4-| 
E|---------------------------------| 
 

---------- 
BRIDGE 
---------- 

"So much to love..." "But I won't be there..." 
 
e|---------------------------------|---------------------------------| 
B|-5-----x-7-------7-------7-------|-5-----x-7-------7-------7-------| 
G|-6-----x-7-------7-------7-------|-6-----x-7-------7-------7-------| 
D|-7-----x-7-------7-------7-------|-7-----x-7-------7-------7-------| 
A|-4-----x-5-------5-------5-------|-4-----x-5-------5-------5-------| 
E|---------------------------------|---------------------------------| 
 

"I know I can..." "But I try my best... 
 
e|---------2-------2-------2-------|-2-------0-------0-------0-------| 
B|-5-----x-3-------3-------3-------|-3-----x-2-------2-------2-------| 
G|-6-----x-4-------4-------4-------|-4-----x-2-------2-------2-------| 
D|-7-----x-4-------4-------4-------|-4-----x-2-------2-------2-------| 
A|-4-----x-2-------2-------2-------|-2-----x-0-------0-------0-------| 
E|---------------------------------|---------------------------------| 
 

---------- 
Chorus 
---------- 

"I'm sorry..." "To hurt..." 
 
e|---------------------------------|---------------------------------| 
B|-7-7-7-7-7-7-7-7-7-7-7-7-7-7-7-7-|-8-8-8-8-8-8-8-8-8-8-8-8-8-8-8-8-| 
G|-7-7-7-7-7-7-7-7-7-7-7-7-7-7-7-7-|-9-9-9-9-9-9-9-9-9-9-9-9-9-9-9-9-| 
D|-7-7-7-7-7-7-7-7-7-7-7-7-7-7-7-7-|-9-9-9-9-9-9-9-9-9-9-9-9-9-9-9-9-| 
A|-5-5-5-5-5-5-5-5-5-5-5-5-5-5-5-5-|-7-7-7-7-7-7-7-7-7-7-7-7-7-7-7-7-| 
E|---------------------------------|---------------------------------| 
 

"It's beyond me..." "The weight..." 
 
e|---------------------------------|---------------------------------| 
B|-7-7-7-7-7-7-7-7-7-7-7-7-7-7-7-7-|-8-8-8-8-8-8-8-8-8-8-8-8-8-8-7-8-| 
G|-7-7-7-7-7-7-7-7-7-7-7-7-7-7-7-7-|-9-9-9-9-9-9-9-9-9-9-9-9-9-9-7-9-| 
D|-7-7-7-7-7-7-7-7-7-7-7-7-7-7-7-7-|-9-9-9-9-9-9-9-9-9-9-9-9-9-9-7-9-| 
A|-5-5-5-5-5-5-5-5-5-5-5-5-5-5-5-5-|-7-7-7-7-7-7-7-7-7-7-7-7-7-7-5-7-| 
E|---------------------------------|---------------------------------| 
 

"Goodnight, goodnight..." 
 
e|-----------------------------------------| 
B|-12-12-12-10-10-10-10-10-8-8-8-7-7-7-7-7-| 
G|-12-12-12-11-11-11-11-11-9-9-9-7-7-7-7-7-| 
D|-12-12-12-11-11-11-11-11-9-9-9-7-7-7-7-7-| 
A|-10-10-10-9--9--9--9--9--7-7-7-5-5-5-5-5-| 
E|-----------------------------------------| 
 

 
e|-----------------------------------------| 
B|-12-12-12-10-10-10-10-10-8-8-8-7-7-7-7-7-| 
G|-12-12-12-11-11-11-11-11-9-9-9-7-7-7-7-7-| 
D|-12-12-12-11-11-11-11-11-9-9-9-7-7-7-7-7-| 
A|-10-10-10-9--9--9--9--9--7-7-7-5-5-5-5-5-| 
E|-----------------------------------------| 
 

 
e|-----------------------------------------| 
B|-12-12-12-10-10-10-10-10-8-8-8-7-7-7-7-7-| 
G|-12-12-12-11-11-11-11-11-9-9-9-7-7-7-7-7-| 
D|-12-12-12-11-11-11-11-11-9-9-9-7-7-7-7-7-| 
A|-10-10-10-9--9--9--9--9--7-7-7-5-5-5-5-5-| 
E|-----------------------------------------| 
 

"Hope that things..." 
 
e|---------------------------------| 
B|-5-5-5-5-5-5-5-5-5-5-5-5-5-5-5-5-| 
G|-6-6-6-6-6-6-6-6-6-6-6-6-6-6-6-6-| 
D|-7-7-7-7-7-7-7-7-7-7-7-7-7-7-7-7-| 
A|-4-4-4-4-4-4-4-4-4-4-4-4-4-4-4-4-| 
E|---------------------------------| 
 

---------- 
OUTRO 
---------- 

 
e|-----------------| 
B|-7---------------| 
G|-7---------------| 
D|-7---------------| 
A|-5---------------| 
E|-----------------| 
 

 
e|-------0-------0-------0-------0-|-------0-------0-------0-------0-| 
B|---7-------7-------7-------7-----|---7-------7-------7-------7-----| 
G|-7---7---7---7---7---7---7---7---|-6---6---6---6---6---6---6---6---| 
D|---------------------------------|---------------------------------| 
A|---------------------------------|---------------------------------| 
E|---------------------------------|---------------------------------| 
 

e|-0---------------| 
B|-7---------------| 
G|-7---------------| 
D|-----------------| 
A|-----------------| 
E|-----------------| 
	  

Search Paypal
auto scroll beats size up size down change color hide chords drawings
tab show chords e-chords YouTube Clip e-chords hide all tabs e-chords go to top tab