Marit Larsen

Under The Surface

Marit Larsen

tabs Beginner beginner

by  JOSIE_92

save to print version add songbook text version e-mail correct tuner
chordsukulelecavacokeyboardtabbassdrumsharmonicaflute Guitar Pro
close

there isn't a video lesson for this song

chords

Under The Surface

	  		Intro : 

e|--------------------------   
B|--7-5---7-5---7-5---7-5--- 
G|------7-----7-----7-----7- 
D|-------------------------- 
A|-------------------------- 
E|-------------------------- 

              D                F#m  
e|--------------------------7-5------ 
B|--7-5---7-5---7-5---7-5--------7--- 
G|------7-----7-----7-----7--------6- 
D|----------------------------------- 
A|----------------------------------- 
E|----------------------------------- 


              D                F#m      
e|--------------------------7-5----5--|This last strum I do it with a thumb harmonic 
B|--7-5---7-5---7-5---7-5----------7--|or artificial harmonic (+12) 
G|------7-----7-----7-----7--------6--| 
D|------------------------------------| 
A|------------------------------------| 
E|------------------------------------| 

  

Solo Part: 
              D                F#m  
e|--------------------------7-5----/9- 
B|--7-5---7-5---7-5---7-5--------7---- 
G|------7-----7-----7-----7----------- 
D|------------------------------------ 
A|------------------------------------ 
E|------------------------------------ 

              F                    Em 
e|--8-7-5-8-7-5-8-7-5-8-7-5-7-5---7-5---7-5---7-5--- 
B|------------------------------8-----8-----8-----8- 
G|-------------------------------------------------- 
D|-------------------------------------------------- 
A|-------------------------------------------------- 
E|-------------------------------------------------- 

    D                         F#m  
e|--5-----5-----5-----5---------5--(5)/12-------- 
B|----8-7---8-7---8-7---8-7--8-------------14---- 
G|----------------------------------------------- 
D|----------------------------------------------- 
A|----------------------------------------------- 
E|----------------------------------------------- 

    F                                   C 
e|--12-10-8---------------------------- 
B|-----------12-10-8------------------- 
G|-------------------10-9-7------------ 
D|--------------------------10-9-7----- 
A|---------------------------------10-- 
E|---------------------------------8--- (...C major scale)  


INTRO: D, F#m, D, F#m 

VERSE 1: 
D                       F#m 
It?s such a funny sensation to be  
    F 
so happy that you wanna die 
D                         F#m 
Promises always were crazy to me 
     F 
But never was I so surprised 


VERSE 2: 
D                           F#m   
Minutes are longer when we are apart 
       F 
Your presence?s more than I can handle 
      D                             F#m 
It?s come to the point where I wonder if I  
F 
could ever be luckier 
  

PRE-Chorus: 
      G       C                  Dm 
When suddenly I?m back at the core 
              Em                  F 
Thinking of her who had you before 
              C 
Were you as good 
               G 
As good as we are 
           F Fm  
Do you remember? 


Chorus: 
               C                    Em 
Did you love her the way you love me? 
              Am                  F 
Is there a chance that there might be 
           C           ; ; ; ; ;  G                 F     
traces of her that you carry under the surface? 


INTRO: D, F#m, D, F#m 


VERSE 3:  
D                               F#m 
Lend me your ears, I would like to confess 
     F  
I?m doubting that you could be real 
D                          F#m 
By your side wearing a beautiful dress 
   F 
I celebrate how good it feels 


VERSE 4:  
 D                       F#m 
Say that you love me, say that it?s true 
F 
I know that I want to believe you 
D                               F#m 
But somehow silence speaks louder than words 
F 
I?m worried she?s still on your mind 


PRE-Chorus: 
G        C                  Dm 
suddenly I?m back at the core 
              Em                  F 
Thinking of her who had you before 
              C 
Were you as good 
               G 
As good as we are 
           F Fm 
Do you remember? 


Chorus: 
               C                    Em 
Did you love her the way you love me? 
              Am                  F 
Is there a chance that there might be 
           C           ; ; ; ; ;  G                 F 
traces of her that you carry under the surface? 


SOLO PART: D, F#m, F, Em, D, F#m, F 


VERSE 5: 
        C(Strum)  
Mmm I know that I?m selfish 
    Dm(Strum) 
I know that it?s bad 
    Em(Strum)                 F(Strum) 
I know, but it?s driving me mad 
                  G 
It?s driving me mad  


PRE-Chorus:  
         C(Strum)         Dm(Strum) 
suddenly I?m back at the core 
              Em(Strum)         F(Strum) 
Thinking of her who had you before 
              C(Strum) 
Were you as good 
               G(Strum) 
As good as we are 
           F Fm 
Do you remember? 


Chorus: 
               C                    Em 
Did you love her the way you love me? 
              Am                  F 
Is there a chance that there might be 
           C           ; ; ; ; ;  G                 C       F 
traces of her that you carry under the surface? 
           Em      F 
under the surface 
           C     F   C (Strum) 
under the surface 


		  

See also:

tabs Cyndi Lauper - Time After Time tabs Backstreet Boys - Everybody (Backstreet's Back) tabs Michael Jackson - Billie Jean (Fingerstyle) tabs Jason Mraz - I'm Yours (acoustic) tabs Placebo - Every You, Every Me tabs Justin Timberlake - Cry Me A River
e-chords

Other versions:

tabs Marit Larsen - Under The Surface
auto scroll beats size up size down change color hide chords drawings
tab show chords e-chords YouTube Clip e-chords hide all tabs e-chords go to top tab

share