Manowar

Kill With Power

Manowar

tabs Beginner beginner

save to print version add songbook text version e-mail correct tuner
chordsukulelecavacokeyboardtabbassdrumsharmonicaflute Guitar Pro
close

there isn't a video lesson for this song

chords

Kill With Power

	  		Intro 
 
|----------------------------------------------------------------------- 
|----------------------------------------------------------------------- 
|----------------------------------------------------------------------- 
|----------------------------------------------------------------------- 
|----------------------------------------------------------------------- 
|-0-0-0-0-0-0-0-0-0-0-0-0-12 \slide------------------------------------- 
 
   Hear      what's written on the wind....	 
|----------------------------------------------------------------------- 
|----------------------------------------------------------------------- 
|--------------------5--5--5---4---------------------------------------- 
|--2--2---2----5-----5--5--5---4---2------------------------------------ 
|--2--2---2----5-----3--3--3---2---2------------------------------------ 
|--0--0---0----3-------------------0-0-0-0-0-0-0-0-0--0-0-0-0-0--------- 
 
   Our arrows    fall like hail  trample   on  the dead...   ...steep ahahah	 
   Ride through gates of clouds  stand on the         open  
|----------------------------------------------------------|-------------- 
|----------------------------------------------------------|-------------- 
|------------------5--5--5---4---2-2--2--4----5--5--5---7-*|-------------- 
|--2--2--2---5-----5--5--5---4---2-2--2--4----5--5--5---7--|--2----------- 
|--2--2--2---5-----3--3--3---2---0-0--0--2----3--3--3---5-*|--2----------- 
|--0--0--0---3---------------------------------------------|--0-0-0-0-0-0- 
 
   		Kill with power!		Die! Die!Diieeeeee!!!	 
|----------------------------------------------------------------------- 
|----------------------------------------------------------------------- 
|----------------------------------5--5--5---4---------------------------- 
|--2--2--2---5---------------------5--5--5---4-----------2---------------- 
|--2--2--2---5---------------------3--3--3---2-----------2---------------- 
|--0--0--0---3-------------------------------------------0-0-0-0-0-0-0-0-- 
 
Standard Tuning 
 
|----------------------------------------------------------------------14(16)| 
|-----------------------------------------------(slide)----------------------| 
|-----------------------------------------------1122334455667788999999-------| 
|----------------------------------------------------------------------------| 
|----------------------------------------------------------------------------| 
|-Slide-your-finger-slightly-on-the-string--0\-------------------------------| 
 
|-15-12----12----------------------------------------------------------------| 
|-------15----15-12----12------------------------------12-13-12----12-13-12--| 
|-------------------14----14-12------------------12-14----------14---------14| 
|-------------------------------14---12-14-12-14-----------------------------| 
|----------------------------------------------------------------------------| 
|----------------------------------------------------------------------------| 
 
|-------------------------17(19)---15h17p15----------------------------------| 
|-------------15h17p15h17-------------------15h17p15------8-10-8---8---------| 
|-12-------------------------------------------------16----------9---9-7-----| 
|----14------------------------------------------------------------------9-7-| 
|----------------------------------------------------------------------------| 
|--------0\------------------------------------------------------------------| 
 
|----------------------------------------------------------------------------| 
|----------------------------------------------15-12-------------------------| 
|----------------------12-14(16)br-12----12-14-------14-12----14-12----------| 
|----------------12-14----------------14-------------------14------14--12----| 
|-10-------12-14----------------------------------------------------------14-| 
|----12-15-------------------------------------------------------------------| 
 
|------------------------------------21-\-21-----12--------------------------| 
|---------------------------------------------------15-12--------------------| 
|---------------------------------------------------------14-12--------------| 
|-------------------------12-14---------------------------------14-----------| 
|-13-12-------------12-14----------------------------------------------------| 
|-------15-12-15-12----------------------------------------------------------| 
 
|-15----15----15----17-15----17-15----19-15-----19\----15-17-15--------------| 
|----17----17----17-------17-------17-------17------------------17-15-17-----| 
|----------------------------------------------------------------------------| 
|----------------------------------------------------------------------------| 
|----------------------------------------------------------------------------| 
|----------------------------------------------------------------------------| 
 
|----------------------------------------------------------------------------| 
|----------------------------------------------------------------------------| 
|-16-14-12-14-16-14-12----------12-14-12----12-14-12----12-14-12-------------| 
|----------------------14----14----------14----------14----------14----------| 
|----------------------------------------------------------------------------| 
|----------------------------------------------------------------------------| 
 
|----------------------------------------------------------------------------| 
|----------------------------------------------------------------------------| 
|--------------------------------------12(13)--------------------------------| 
|-14-12-14--10-9-10-12-10-9----9-10-12--------10-9-10-9----9-10--------------| 
|---------------------------12--------------------------12-------------------| 
|----------------------------------------------------------------------------| 
 
|-12-----12------12-----12-----15-12----15-12----15-12----15-12--17-15-------| 
|-15(17)-15(17)--15(17)-15(17)-------15-------15-------15--------------15----| 
|----------------------------------------------------------------------------| 
|----------------------------------------------------------------------------| 
|----------------------------------------------------------------------------| 
|----------------------------------------------------------------------------| 
 
|-17-15----19-15-----20-17----22-20----22(24)--------------------------------| 
|-------15-------17--------17-------20----------------------12-15(17)--------| 
|-----------------------------------------------------12-14------------------| 
|-----------------------------------------------12-14------------------------| 
|----------------------------------------------------------------------------| 
|----------------------------------------------------------------------------| 
 
|----------------------------------------------------------------------------| 
|-----------------------------12-15(17)-------12-15-12-----------------------| 
|-----------------------12-14-----------12-14----------14-12-----------------| 
|--14-12----------12-14--------------------------------------14-12-----------| 
|--------14-12-14--------------------------------------------------14-12-----| 
|------------------------------------------------------------------------15-12 
 
|----------------------------------------------------------------------------| 
|----------------------------------------------------------------------------| 
|----------------------------------------------------------------------------| 
|---------------------------9-10-12-9-10-12-9-10-12--------------------------| 
|----------------------------------------------------------------------------| 
|-0\--some-strange-effects---------------------------------------------------| 
 
 
_______________________________________________________ 
Contribuição: Alex renó de oliveira Borges([email protected]) 
		  

auto scroll beats size up size down change color hide chords drawings
tab show chords e-chords YouTube Clip e-chords hide all tabs e-chords go to top tab

share