Manowar

Animals

Manowar

tabs

by  EDSOOLIVEIRA

save to print version add songbook text version e-mail correct tuner
chordsukulelecavacokeyboardtabbassdrumsharmonicaflute Guitar Pro
close

there isn't a video lesson for this song

chords

Animals

	  		

     Manowar - Animals                                        
     H                 Q    E  E     E  E  E  E  E  E  Q      
E||-------------------------------|-------------------------| 
B||-------------------------------|-------------------------| 
G||----------------------------4--|--------------------7----| 
D||----------------------------4--|--------------------7----| 
A||----------------------------2--|--2--2--2--2--2--2--5----| 
E||-------------------------------|-------------------------| 


  E  E  E  E  E  E  Q       E  E  E  E  E  E  Q       E  E  E  E  E  E  Q      
-------------------------|-------------------------|-------------------------| 
-------------------------|-------------------------|-------------------------| 
-------------------------|--------------------4----|-------------------------| 
--------------------4----|--------------------4----|--------------------5----| 
--5--5--5--5--5--5--4----|--------------------2----|--2--2--2--2--2--2--5----| 
--------------------2----|--2--2--2--2--2--2-------|--------------------3----| 


  E  E  E  E  E  E  Q       E  E  E  E  Q    Q       E  E  E  E  Q    Q      
-------------------------|------------------------|------------------------| 
-------------------------|------------------------|-----3-----3------------| 
--------------------7----|-------------------2----|-----2-----2--2----2----| 
--------------------7----|-------------------2----|--2--0-----0--2----2----| 
--------------------5----|--5--5--5--5--5----0----|--0-----------0----0----| 
--3--3--3--3--3--3-------|------------------------|------------------------| 


  E  E  E  E  Q    E     E  E  E  E  E  E  Q       E  E  E  E  E  E  Q      
----------------------|-------------------------|-------------------------| 
-----3-----3----------|-------------------------|-------------------------| 
-----2-----2--2----4--|--------------------7----|-------------------------| 
--2--0-----0--2----4--|--------------------7----|--------------------4----| 
--0-----------0----2--|--2--2--2--2--2--2--5----|--5--5--5--5--5--5--4----| 
----------------------|-------------------------|--------------------2----| 


  E  E  E  E  E  E  Q       E  E  E  E  E  E  Q       E  E  E  E  E  E  Q      
-------------------------|-------------------------|-------------------------| 
-------------------------|-------------------------|-------------------------| 
--------------------4----|-------------------------|--------------------7----| 
--------------------4----|--------------------5----|--------------------7----| 
--------------------2----|--2--2--2--2--2--2--5----|--------------------5----| 
--2--2--2--2--2--2-------|--------------------3----|--3--3--3--3--3--3-------| 


  E  E  E  E  Q    Q       E  E  E  E  Q    Q       E  E  E  E  Q    E    
------------------------|------------------------|----------------------| 
------------------------|-----3-----3------------|-----3-----3----------| 
-------------------2----|-----2-----2--2----2----|-----2-----2--2----4--| 
-------------------2----|--2--0-----0--2----2----|--2--0-----0--2----4--| 
--5--5--5--5--5----0----|--0-----------0----0----|--0-----------0----2--| 
------------------------|------------------------|----------------------| 


  E  E  E  E  E  E  Q       E  E  E  E  E  E  Q       E  E  E  E  E  E  Q      
-------------------------|-------------------------|-------------------------| 
-------------------------|-------------------------|-------------------------| 
--------------------7----|-------------------------|--------------------4----| 
--------------------7----|--------------------4----|--------------------4----| 
--2--2--2--2--2--2--5----|--5--5--5--5--5--5--4----|--------------------2----| 
-------------------------|--------------------2----|--2--2--2--2--2--2-------| 


  E  E  E  E  E  E  Q       E  E  E  E  E  E  Q       E  E  E  E  Q    Q      
-------------------------|-------------------------|------------------------| 
-------------------------|-------------------------|------------------------| 
-------------------------|--------------------7----|-------------------2----| 
--------------------5----|--------------------7----|-------------------2----| 
--2--2--2--2--2--2--5----|--------------------5----|--5--5--5--5--5----0----| 
--------------------3----|--3--3--3--3--3--3-------|------------------------| 


  E  E  E  E  Q    Q       E  E  E  E  Q    E     E  E  E  E  E  E  Q      
------------------------|----------------------|-------------------------| 
-----3-----3------------|-----3-----3----------|-------------------------| 
-----2-----2--2----2----|-----2-----2--2----4--|--------------------7----| 
--2--0-----0--2----2----|--2--0-----0--2----4--|--------------------7----| 
--0-----------0----0----|--0-----------0----2--|--2--2--2--2--2--2--5----| 
------------------------|----------------------|-------------------------| 


  E  E  E  E  E  E  Q       E  E  E  E  E  E  Q       E  E  E  E  E  E  Q      
-------------------------|-------------------------|-------------------------| 
-------------------------|-------------------------|-------------------------| 
-------------------------|--------------------4----|-------------------------| 
--------------------4----|--------------------4----|--------------------5----| 
--5--5--5--5--5--5--4----|--------------------2----|--2--2--2--2--2--2--5----| 
--------------------2----|--2--2--2--2--2--2-------|--------------------3----| 


  E  E  E  E  E  E  Q       E  E  E  E  Q    Q       E  E  E  E  Q    Q      
-------------------------|------------------------|------------------------| 
-------------------------|------------------------|-----3-----3------------| 
--------------------7----|-------------------2----|-----2-----2--2----2----| 
--------------------7----|-------------------2----|--2--0-----0--2----2----| 
--------------------5----|--5--5--5--5--5----0----|--0-----------0----0----| 
--3--3--3--3--3--3-------|------------------------|------------------------| 


  E  E  E  E  Q    E     E  E  E  E  E  E  Q       E  E  E  E  E  E  Q      
----------------------|-------------------------|-------------------------| 
-----3-----3----------|-------------------------|-------------------------| 
-----2-----2--2----4--|--------------------7----|-------------------------| 
--2--0-----0--2----4--|--------------------7----|--------------------4----| 
--0-----------0----2--|--2--2--2--2--2--2--5----|--5--5--5--5--5--5--4----| 
----------------------|-------------------------|--------------------2----| 


  E  E  E  E  E  E  Q       E  E  E  E  E  E  Q       E  E  E  E  E  E  Q      
-------------------------|-------------------------|-------------------------| 
-------------------------|-------------------------|-------------------------| 
--------------------4----|-------------------------|--------------------7----| 
--------------------4----|--------------------5----|--------------------7----| 
--------------------2----|--2--2--2--2--2--2--5----|--------------------5----| 
--2--2--2--2--2--2-------|--------------------3----|--3--3--3--3--3--3-------| 


  E  E  E  E  Q    Q       E  E  E  E  Q    Q       E  E  E  E  Q    E    
------------------------|------------------------|----------------------| 
------------------------|-----3-----3------------|-----3-----3-------3--| 
-------------------2----|-----2-----2--2----2----|-----2-----2--2----2--| 
-------------------2----|--2--0-----0--2----2----|--2--0-----0--2----0--| 
--5--5--5--5--5----0----|--0-----------0----0----|--0-----------0----0--| 
------------------------|------------------------|----------------------| 


  W                   H        Q    E  E     Q.     S Q.     S   
-------------------|----------------------|--------------------| 
--L----------------|--L-------------------|--------------------| 
--L----------------|--L----------------2--|-----------2--------| 
--L----------------|--L----------------2--|--L------L-2--------| 
--L----------------|--L----------------0--|--L------L-0--------| 
-------------------|----------------------|--------------------| 


  S H         E  E  S E     E  E  E  E  E  E  E  E     E  E  E  E  E  E  E  E    
-------------------------|--------------------------|--------------------------| 
-------------------------|--------------------------|--------------------------| 
--L-4\-------------------|--------------------------|--------------------------| 
--L-4\-------------------|-----------------------2--|--2--2--2--2--2--2--2--4--| 
--L-2\----------------5--|--5--5--5--5--5--5--5--0--|--0--0--0--0--0--0--0--2--| 
----------------------3--|--3--3--3--3--3--3--3-----|--------------------------| 


  E  E  E  E  E  E  E  E     E  E  E  E  E  E  E  E     W                  
--------------------------|--------------------------|-------------------| 
--------------------------|-----------------------3--|--L----------------| 
--------------------------|-----------------------2--|--L----------------| 
--4--4--4--4--4--4--4--4--|--4--4--4--4--4-----L--0--|--L----------------| 
--2--2--2--2--2--2--2--2--|--2--2--2--2--2-----L--0--|--L----------------| 
--------------------------|--------------------------|-------------------| 


  H        Q    E  E     Q.     S Q.     S    S H         E  E  S E    
----------------------|--------------------|-------------------------| 
--L-------------------|--------------------|-------------------------| 
--L----------------2--|-----------2--------|--L-4\-------------------| 
--L----------------2--|--L------L-2--------|--L-4\-------------------| 
--L----------------0--|--L------L-0--------|--L-2\----------------5--| 
----------------------|--------------------|----------------------3--| 


  E  E  E  E  E  E  E  E     E  E  E  E  E  E  E  E     Q    E  E  Q    E  E    
--------------------------|--------------------------|------------------------| 
--------------------------|--------------------------|----------3-------------| 
--------------------------|-----------------------4--|----------2----------9--| 
-----------------------2--|--2--2--2--2--2--2--2--4--|----------0----------9--| 
--5--5--5--5--5--5--5--0--|--0--0--0--0--0--0--0--2--|---------------------7--| 
--3--3--3--3--3--3--3-----|--------------------------|------------------------| 


  H        E  E  E  E     E  E  E  E  E  E  Q       E  E  E  E  E  E  Q      
-----------------------|-------------------------|-------------------------| 
-----------------------|-------------------------|-------------------------| 
--L-----------------4--|--------------------7----|-------------------------| 
--L-----------------4--|--------------------7----|--------------------4----| 
--L-----------------2--|--2--2--2--2--2--2--5----|--5--5--5--5--5--5--4----| 
-----------------------|-------------------------|--------------------2----| 


  E  E  E  E  E  E  Q       E  E  E  E  E  E  Q       E  E  E  E  E  E  Q      
-------------------------|-------------------------|-------------------------| 
-------------------------|-------------------------|-------------------------| 
--------------------4----|-------------------------|--------------------7----| 
--------------------4----|--------------------5----|--------------------7----| 
--------------------2----|--2--2--2--2--2--2--5----|--------------------5----| 
--2--2--2--2--2--2-------|--------------------3----|--3--3--3--3--3--3-------| 


  E  E  E  E  Q    Q       E  E  E  E  Q    Q       E  E  E  E  Q    E    
------------------------|------------------------|----------------------| 
------------------------|-----3-----3------------|-----3-----3----------| 
-------------------2----|-----2-----2--2----2----|-----2-----2--2----4--| 
-------------------2----|--2--0-----0--2----2----|--2--0-----0--2----4--| 
--5--5--5--5--5----0----|--0-----------0----0----|--0-----------0----2--| 
------------------------|------------------------|----------------------| 


  E  E  E  E  E  E  Q       E  E  E  E  E  E  Q       E  E  E  E  E  E  Q      
-------------------------|-------------------------|-------------------------| 
-------------------------|-------------------------|-------------------------| 
--------------------7----|-------------------------|--------------------4----| 
--------------------7----|--------------------4----|--------------------4----| 
--2--2--2--2--2--2--5----|--5--5--5--5--5--5--4----|--------------------2----| 
-------------------------|--------------------2----|--2--2--2--2--2--2-------| 


  E  E  E  E  E  E  Q       E  E  E  E  E  E  Q       E  E  E  E  Q    Q      
-------------------------|-------------------------|------------------------| 
-------------------------|-------------------------|------------------------| 
-------------------------|--------------------7----|-------------------2----| 
--------------------5----|--------------------7----|-------------------2----| 
--2--2--2--2--2--2--5----|--------------------5----|--5--5--5--5--5----0----| 
--------------------3----|--3--3--3--3--3--3-------|------------------------| 


  E  E  E  E  Q    Q       E  E  E  E  Q    E     E  E  E  E  E  E  Q      
------------------------|----------------------|-------------------------| 
-----3-----3------------|-----3-----3----------|-------------------------| 
-----2-----2--2----2----|-----2-----2--2----4--|--------------------7----| 
--2--0-----0--2----2----|--2--0-----0--2----4--|--------------------7----| 
--0-----------0----0----|--0-----------0----2--|--2--2--2--2--2--2--5----| 
------------------------|----------------------|-------------------------| 


  E  E  E  E  E  E  Q       E  E  E  E  E  E  Q       E  E  E  E  E  E  Q      
-------------------------|-------------------------|-------------------------| 
-------------------------|-------------------------|-------------------------| 
-------------------------|--------------------4----|-------------------------| 
--------------------4----|--------------------4----|--------------------5----| 
--5--5--5--5--5--5--4----|--------------------2----|--2--2--2--2--2--2--5----| 
--------------------2----|--2--2--2--2--2--2-------|--------------------3----| 


  E  E  E  E  E  E  Q       E  E  E  E  Q    Q       E  E  E  E  Q    Q      
-------------------------|------------------------|------------------------| 
-------------------------|------------------------|-----3-----3------------| 
--------------------7----|-------------------2----|-----2-----2--2----2----| 
--------------------7----|-------------------2----|--2--0-----0--2----2----| 
--------------------5----|--5--5--5--5--5----0----|--0-----------0----0----| 
--3--3--3--3--3--3-------|------------------------|------------------------| 


  E  E  E  E  Q    E     W                   H        Q    E  E    
----------------------|-------------------|----------------------| 
-----3-----3-------3--|--L----------------|--L-------------------| 
-----2-----2--2----2--|--L----------------|--L----------------2--| 
--2--0-----0--2----0--|--L----------------|--L----------------2--| 
--0-----------0----0--|--L----------------|--L----------------0--| 
----------------------|-------------------|----------------------| 


  Q.     S Q.     S    S H         E  E  S E     E  E  E  E  E  E  E  E    
--------------------|-------------------------|--------------------------| 
--------------------|-------------------------|--------------------------| 
-----------2--------|--L-4\-------------------|--------------------------| 
--L------L-2--------|--L-4\-------------------|-----------------------2--| 
--L------L-0--------|--L-2\----------------5--|--5--5--5--5--5--5--5--0--| 
--------------------|----------------------3--|--3--3--3--3--3--3--3-----| 


  E  E  E  E  E  E  E  E     E  E  E  E  E  E  E  E    
--------------------------|--------------------------| 
--------------------------|--------------------------| 
--------------------------|--------------------------| 
--2--2--2--2--2--2--2--4--|--4--4--4--4--4--4--4--4--| 
--0--0--0--0--0--0--0--2--|--2--2--2--2--2--2--2--2--| 
--------------------------|--------------------------| 


  E  E  E  E  E  E  E  E     W                   H        Q    E  E    
--------------------------|-------------------|----------------------| 
-----------------------3--|--L----------------|--L-------------------| 
-----------------------2--|--L----------------|--L----------------2--| 
--4--4--4--4--4-----L--0--|--L----------------|--L----------------2--| 
--2--2--2--2--2-----L--0--|--L----------------|--L----------------0--| 
--------------------------|-------------------|----------------------| 


  Q.     S Q.     S    S H         E  E  S E     E  E  E  E  E  E  E  E    
--------------------|-------------------------|--------------------------| 
--------------------|-------------------------|--------------------------| 
-----------2--------|--L-4\-------------------|--------------------------| 
--L------L-2--------|--L-4\-------------------|-----------------------2--| 
--L------L-0--------|--L-2\----------------5--|--5--5--5--5--5--5--5--0--| 
--------------------|----------------------3--|--3--3--3--3--3--3--3-----| 


  E  E  E  E  E  E  E  E     Q    E  E  Q    E  E     H        E  E  E  E    
--------------------------|------------------------|-----------------------| 
--------------------------|----------3-------------|-----------------------| 
-----------------------4--|----------2----------9--|--L-----------------2--| 
--2--2--2--2--2--2--2--4--|----------0----------9--|--L-----------------2--| 
--0--0--0--0--0--0--0--2--|---------------------7--|--L-----------------0--| 
--------------------------|------------------------|-----------------------| 


  E  H        E  E  E     H        E  E     Q    H        Q      
-----------------------|-----------------|---------------------| 
--3--------------------|-----------3-----|---------------------| 
--2--------------------|-----------2-----|--L----2-------------| 
--0--------------------|-----------0-----|--L----2-------------| 
--0--------------------|-----------------|-------0-------------| 
-----------------------|-----------------|---------------------| 


  Q    Q    Q    E  E     Q    E  E  Q    E  E     E  H        E  E  E    
-----------------------|------------------------|-----------------------| 
-----------------------|---------------------3--|--3--------------------| 
--L----L----4-------L--|---------------------2--|--2--------------------| 
--L----L----4-------L--|---------------------0--|--0--------------------| 
--L----L----2-------L--|---------------------0--|--0--------------------| 
-----------------------|------------------------|-----------------------| 


  H        E  E     Q    E  E  E  E  E  E     Q    Q    E  E  E  E    
-----------------|-------------------------|------------------------| 
--------------3--|-------------------------|------------------------| 
--------------2--|----------2--------------|--L----L----4--4--------| 
--------------0--|----------2--------------|--L----L----4--4--------| 
-----------------|----------0--------------|--L----L----2--2--------| 
-----------------|-------------------------|------------------------| 


  E  E  E  E  E  E  E  E     H        E  E     Q    E  E  E  E  E  E    
--------------------------|-----------------|-------------------------| 
-----3--3-----------------|--------------3--|-------------------------| 
-----2--2-----------------|--------------2--|----------2--------------| 
-----0--0-----------------|--------------0--|----------2--------------| 
-----0--0-----------------|-----------------|----------0--------------| 
--------------------------|-----------------|-------------------------| 


                             NH                                      
  Q    Q    Q    E  E        W                    W                  
-----------------------|-----------------------|-------------------| 
-----------------------|-----------------------|-------------------| 
--L----L----4----------|--<>(4)----------------|--L----------------| 
--L----L----4----------|-----L-----------------|--L----------------| 
--L----L----2----------|-----L-----------------|--L----------------| 
-----------------------|-----------------------|-------------------| 


                                             NH                  
  W                   W                      W                   
-------------------|-------------------|-----------------------| 
-------------------|-------------------|-----------------------| 
--L----------------|--L----------------|-----------------------| 
--L----------------|--L----------------|--<>(4)----------------| 
--L----------------|--L----------------|-----L-----------------| 
-------------------|-------------------|-----------------------| 


  W                   W                     W                   
-------------------|-------------------|----------------------| 
-------------------|-------------------|--(12)----------------| 
--L----------------|--L----------------|----------------------| 
--L----------------|--L----------------|----4-----------------| 
--L----------------|--L----------------|----2-----------------| 
-------------------|-------------------|----------------------| 


  W                   W                   W                   W                  
-------------------|-------------------|-------------------|-------------------| 
--L----------------|--L----------------|--L----------------|--L----------------| 
-------------------|-------------------|-------------------|-------------------| 
--L----------------|--L----------------|--L----------------|--L----------------| 
--L----------------|--L----------------|--L----------------|--L----------------| 
-------------------|-------------------|-------------------|-------------------| 


  W                   W                   H        Q    E  E    
-------------------|-------------------|----------------------| 
--L----------------|--L----------------|----------------------| 
-------------------|-------------------|-------------------4--| 
--L----------------|--L----------------|-------------------4--| 
--L----------------|--L----------------|-------------------2--| 
-------------------|-------------------|----------------------| 


  E  E  E  E  E  E  Q       E  E  E  E  E  E  Q       E  E  E  E  E  E  Q      
-------------------------|-------------------------|-------------------------| 
-------------------------|-------------------------|-------------------------| 
--------------------7----|-------------------------|-----------------L--4----| 
--------------------7----|--------------------4----|-----------------L--4----| 
--------------------5----|--------------------4----|-----------------L--2----| 
-------------------------|--------------------2----|-------------------------| 


  E  E  E  E  E  E  Q       E  E  E  E  E  E  Q       E  E  E  E  Q    Q      
-------------------------|-------------------------|------------------------| 
-------------------------|-------------------------|------------------------| 
-------------------------|--------------------7----|-------------------2----| 
--------------------5----|--------------------7----|-------------------2----| 
--------------------5----|--------------------5----|-------------------0----| 
--------------------3----|-------------------------|------------------------| 


  E  E  E  E  Q    Q       H        Q    E  E     E  E  E  E  E  E  Q      
------------------------|----------------------|-------------------------| 
------------------------|----------------------|-------------------------| 
-------------------2----|--L----------------4--|-----------------L--7----| 
-------------------2----|--L----------------4--|-----------------L--7----| 
-------------------0----|--L----------------2--|-----------------L--5----| 
------------------------|----------------------|-------------------------| 


  E  E  E  E  E  E  Q       E  E  E  E  E  E  Q       E  E  E  E  E  E  Q      
-------------------------|-------------------------|-------------------------| 
-------------------------|-------------------------|-------------------------| 
-------------------------|--------------------4----|-------------------------| 
--------------------4----|--------------------4----|--------------------5----| 
--------------------4----|--------------------2----|--------------------5----| 
--------------------2----|-------------------------|--------------------3----| 


  E  E  E  E  E  E  Q       E  E  E  E  Q    Q       E  E  E  E  Q    Q      
-------------------------|------------------------|------------------------| 
-------------------------|------------------------|------------------------| 
--------------------7----|--------------L----2----|-------------------2----| 
--------------------7----|--------------L----2----|-------------------2----| 
--------------------5----|--------------L----0----|-------------------0----| 
-------------------------|------------------------|------------------------| 


                   Guitar Solo   
  H        Q    E  E             
-------------------------------| 
-------------------------------| 
--L----------------9b----------| 
--L----------------------------| 
--L----------------------------| 
-------------------------------| 


     This is not correct solo                                                   
  E  E                        E   E  E  E   E  E     E  H         E    E   E    
--7--7------------------------7---7--7--7---7--7--|--7------------7h--10b--7--| 
--7--7------------------------7---7--7--7---7--7--|--7------------------------| 
------------------------------9b--------9b--------|-----9b--------------------| 
--------------------------------------------------|---------------------------| 
--------------------------------------------------|---------------------------| 
--------------------------------------------------|---------------------------| 


  tr           tr                                          
  H            H                E  E   E  E  E  E  E  E    
--7(10)---------------------|--10--7---------------------| 
---------------7(10)--------|---------10--7--------------| 
----------------------------|----------------------------| 
----------------------------|----------------9--7--------| 
----------------------------|----------------------9--7--| 
----------------------------|----------------------------| 


  E  E  E  E  E  E  E  E     E  E  E  E  E  E  E  E    
--------------------------|--------------------------| 
--------------------------|--------------------------| 
--------------------------|--------------------------| 
-----7-----7--------7--9--|--9-----9--------7--9--9--| 
--9--7--9--7--7--9--------|-----7-----7--9-----------| 
--------------------------|--------------------------| 


           tr                                          
  E  E  E  H           E     E  E  E  E  E  E  Q       
--------------------------|--------------------------| 
--------------------------|--------------------------| 
-----------6(7)--------9--|--------7--7--9--9--9b----| 
--7--7--9-----------------|--7--9--------------------| 
--------------------------|--------------------------| 
--------------------------|--------------------------| 


                             tr                              
  E  E  E  E  E  E  E  E     H            E   S  E   S  E    
--7--7--7--7--7--7--7--7--|--5(7)--------10p--7-----10p-7--| 
--7--7--7--7--7--7--7--7--|---------------------10---------| 
--------------------------|--------------------------------| 
--------------------------|--------------------------------| 
--------------------------|--------------------------------| 
--------------------------|--------------------------------| 


   S  E   S  S S  H          E      W                   
-----10p--7----7-12b--------12--|--17b----------------| 
--10--------10------------------|---------------------| 
--------------------------------|---------------------| 
--------------------------------|---------------------| 
--------------------------------|---------------------| 
--------------------------------|---------------------| 


  tr           tr              tr                     
  H            H               W                      
--7(10)---------------------|--7(10)----------------| 
---------------7(10)--------|-----------------------| 
----------------------------|-----------------------| 
----------------------------|-----------------------| 
----------------------------|-----------------------| 
----------------------------|-----------------------| 


                                                      tr                     
   S  S  S  S  S  S  S  S  S  S  S  S  S  S  S  S     W                      
--10p-7----10p-7----10p-7----10p-7----10p-7----10h-|--7(10)----------------| 
--------10-------10-------10-------10-------10-----|-----------------------| 
---------------------------------------------------|-----------------------| 
---------------------------------------------------|-----------------------| 
---------------------------------------------------|-----------------------| 
---------------------------------------------------|-----------------------| 


-----|| 
-----|| 
-----|| 
-----|| 
-----|| 
-----|| 




Duration Legend 
--------------- 
W - whole 
H - half 
Q - quarter 
E - 8th 
S - 16th 
T - 32nd 
X - 64th 
. - note dotted 
|-n-|  - n-tuplets 


Tablature Legend 
---------------- 
L - tied note 
x - dead note 
g - grace note 
(n) - ghost note 
> - accentuded note 
NH - natural harmonic 
AH - artificial harmonic 
TH - tapped harmonic 
SH - semi harmonic 
PH - pitch harmonic 
h - hammer on 
p - pull off 
b - bend 
br - bendRelease 
pb - preBend 
pbr - preBendRelease 
brb - bendReleaseBend 
\n/ - tremolo bar dip 
\n - tremolo bar dive 
-/n - tremolo bar Release up 
/n\ - tremolo bar inverted dip 
/n - tremolo bar return 
-\n - tremolo bar Release down 
S - shift slide 
s - legato slide 
/ -  slide into from below or out of upwards 
\ -  slide into from above or out of downwards 
~ - vibrato 
W - wide vibrato 
tr - trill 
TP - tremolo picking 
T - tapping 
S - slap 
P - pop 
< - fade in 
^ - brush up 
v - brush down 
		  

auto scroll beats size up size down change color hide chords drawings
tab show chords e-chords YouTube Clip e-chords hide all tabs e-chords go to top tab

share