Mago De Oz

Si Te Vas

Mago De Oz

tabs Beginner beginner

by  IRONMEJIAB

save to print version add songbook text version e-mail correct tuner
chordsukulelecavacokeyboardtabbassdrumsharmonicaflute Guitar Pro
close

there isn't a video lesson for this song

chords

Si Te Vas

	  		Si Te Vas 
Mago De Oz 
 
 
INTRO: 
e ---------------------------------------------------------------------- 
B --10------------------------------------------------------------------ 
G -----10--------12--9--10-------------------------10--9--10--12-------- 
D --------10--10-----------12--------12--10--8--12---------------------- 
A ----------------------------12--12------------------------------------ 
E ---------------------------------------------------------------------- 
 
 
e ---------------------------------------------------------------------- 
B --10-----------------------------------------------------------10?8--- 
G -----10--------12--9--10-------------------------10--9--10--12-------- 
D --------10--10-----------12--------12--10--8--12---------------------- 
A ----------------------------12--12------------------------------------ 
E ---------------------------------------------------------------------- 
 
 
VERSO 1  
 
F             C 
Vengo de tanto perder 
     Dm        A 
Que tuve miedo a tener 
F            C        Dm                 C 
Algo por lo que abrir mi alma y ponerla a tus pies, 
F           A#     C 
Siento del viento celos 
              Dm 
Por acariciar tu cara cada mañana 
    A#     Dm        C 
Y quiero pegarme con el 
 
 
 
ESTRIBILLO 
 
      F                C 
Y a pesar de todo que difícil es 
Dm                        A G 
Que no me duela estar sin ti 
F                     C 
Yo seré tu aire tu serás la piel 
    Dm            C 
Que cubra mi soledad 
 
Quiero estar junto a ti 
 
 
VIOLIN: 
 
e ----8------8------6--5--3?5p3------- 
B --6---6--5---5--3-------------6----- 
G ------------------------------------ 
D ------------------------------------ 
A ------------------------------------ 
E ------------------------------------ 
 
VERSO 2 
 
F            C           
Quiero dejar de morir  
    Dm          A 
en vida tu me haces vivir 
F            C          Dm        C 
Todo con lo que soñé y nunca pude tener 
F          A#           C 
Quiero dormir en tus ojos y al despertar 
Dm                     A#    Dm         C 
Beber de tu boca, todavía de ti tengo sed. 
 
 
 
ESTRIBILLO 
 
      F                C 
Y a pesar de todo que difícil es 
Dm                        A G 
Que no me duela estar sin ti 
F                     C 
Yo seré tu aire tu serás la piel 
    Dm            C 
Que cubra mi soledad 
 
Quiero estar junto a ti 
 
 
VIOLIN: 
 
e ----8--10--8--------------10--8--6--5---5---- 
B --6----------10--10--8--6-------------8---8-- 
G --------------------------------------------- 
D --------------------------------------------- 
A --------------------------------------------- 
E --------------------------------------------- 
 
 
 
 
 
e ----8------8------6--5--3?5p3---8------8------6?5?3?5p3----- 
B --6---6--5---5--3-------------6---6--5---5--3-----------6--- 
G ------------------------------------------------------------ 
D ------------------------------------------------------------ 
A ------------------------------------------------------------ 
E ------------------------------------------------------------ 
 
 
SOLO:  
 
	 
 
ESTROFA FINAL 
 
F             C       Dm         C 
Si te vas, mi amor si tu te vas 
         A#        C            Dm      C 
Me volveré a encerrar en vida y no saldré 
F            C           Dm            C 
¿Dónde estas?, mi vida ¿Dónde estas? 
         A#       C          Dm     C 
Pues necesito tu amor para vivir. 
 
 
INTRO 2 VECES 
 
FINAL IGUAL QUE EL INTRO 1 OCTAVA ARRIBA 
 
e --17-------------------------------------------------------------17----- 
B -----18--------20--17--18--------------------------18--17?18--20----20-- 
G --------17--17------------19--------19--17--15--19---------------------- 
D -----------------------------19--19------------------------------------- 
A ------------------------------------------------------------------------ 
E ------------------------------------------------------------------------ 
 

		  

Full key step upFull key step up
Half key step upHalf key step up
Half key step downHalf key step down
Full key step downFull key step down
hide glossary

See also:

tabs Mago De Oz - Ancha es castilla tabs La Oreja de Van Gogh - V.s.o. tabs Ana Gabriel - Fgbh Gj tabs Avalanch - Torquemada tabs Avalanch - La Llama Eterna tabs Mago De Oz - Pensando En Ti
e-chords

Other versions:

tabs Mago De Oz - Si Te Vas
auto scroll beats size up size down change color hide chords drawings
tab show chords e-chords YouTube Clip e-chords hide all tabs e-chords go to top tab

share