Mago De Oz

Satania

Mago De Oz

tabs Expert expert

by  MÄGO DE OZ

save to print version add songbook text version e-mail correct tuner
chordsukulelecavacokeyboardtabbassdrumsharmonicaflute Guitar Pro
close

there isn't a video lesson for this song

chords

Satania

Year: 2002 - Album: Costa Da Morte

	  		Primero en la intro debes tok'r E en el traste 10 es algo bastante intuitivo. 
 
La guitarra tok :G D E  G D B, mientras Moha hace lo suyo! 
 
RIFF A: 
E|---------5-7-5------------------5-7-5-/10-7----- 
B|---5-7-8-------7---5------5-7-8----------------- 
G|-7---------------7------7----------------------- 
 
 
 
Ahora Moha lo hace una octava más aguda, por lo q' quedaría así: 
 
E|---------17-19-17-------------------------------------------------- 
B|---17-19-20-------19--19-19-20-17-----------17-------------15------ 
G|-19-----------------19-----------19---16-17----19-19-16-16-14-14-14 
 
Ahora la guitarra cambia un poco:  G     D     E     B     C       G     A     D 
 
 
 
RIFF A': 
E|---------5-7-5--------|-------------------------------------- 
B|---5-7-8-------7---5--|-20-19-17----------------------------- 
G|-7---------------7----|-----------19--16-19--14-16----------- 
 
Aclaro q' si keres tokrlo en la guitarra debes tocarlo en su tono original y no subirlo un octava. 
 
 
 
Entre los versos solo debes tokr D y E(trastes 12 y 10). 
 
 
 
 
BRIDGE:              1.                     2. 
B|---------10-8-7---|----------------------|--------------- 
G|----------------7-|----------------------|--------------- 
D|--9--7------------|---9--7---------------|-----4----9---- 
A|--7--5------------|---7--5---2-2-5^2-5^2-|-----2----7---- 
 
(g) E  D             1. E  D   B            2.   B    E 
 
 
 
RIFF B: esto lo hace carlitos(primera guitarra) 
B|---------------------------------------------------------- 
G|-------------------------------------------2-4-2---------- 
D|-2---4-5-4-2-----2---4-5-4-2---------2-4-5-------5-4------ 
A|-------------5---------------5---3-5---------------------- 
 
 
y esto lo hace fran 
E|-------------------------------------------7-9-7---------- 
B|-5---7-8-7-5-----5---7-8-7-5-----5-7-8-7-8-------8-7------ 
G|-------------7---------------7---------------------------- 
 
 
G|-------4---------------4-------------4-------------------- 
D|-5---7---7-5-4---5---7---7-5-4---5-7---7-5-4-5-7-5-4------ 
 
 
 
ESTRIBILLO: 
Ambas guitarras: 
D|--9------------------|------------------------------------- 
A|--7----9---10-----9--|-10-----9-------2--------2----------- 
E|-------7----8-----7--|--8-----7---------5-3-2--0----------- 
 
Esto lo hace el Moha(violín): 
E|---------------------|------------------------------------ 
B|--5------------------|------------------------------------ 
G|-------4----5-----4--|--5-----4-------4-2----------------- 
D|---------------------|--------------------5-4--2---------- 
 
Violín de nuevo: 
E|-----------------/7--|--7-5-----------7-5----------------- 
B|--5--7-8--7-8-7-5----|------8-7-5---------8-7--5---------- 
G|---------------------|--------------7--------------------- 
D|---------------------|------------------------------------ 
 
 
 
Este es el pedazo del bajo(salva y sergio): 
                  X3    1.               2. 
G|-----------------|---------------------------------------- 
D|-----------------|----5-----------5-------------5--------- 
A|-5^7-7-7-7-7-7-7-|------7-5---5-7---7-------5^7---7-5----- 
E|-----------------|----------7-----------5^7-----------7--- 
 
Guitarra 1: 
E|------|------|--------|------|-repetir muchas veces.----- 
B|-8----|-5----|-7--7^8-|-7----|---------------------------- 
 
Guitarra 2: 
B|-5----|------|-3--3^5-|-3----|-Idem--------------------- 
G|------|-4----|--------|------|---------------------------- 
 
Violin, primero hace lo mismo q guit.2 luego hace esto: 
B|-(5-7)-|-8-5---5-----8-5---5-----8-5---5-----8-7-5-------- 
G|-------|-----7-----------7-----------7-------------7------ 
 
 
B|---------7-3---3-----7-3---3-----7-3---3-----7-8-7-5------ 
G|-------------5-----------5-----------5-------------------- 
 
RIFF C:                    2. 
G|4-------4-------4-5-4*|2-------2-------2-4-2|5-------5-------5-7-5- 
D|--5-2-5---5-2-5-------|--4---4---4---4------|--7-4-7---7-4-7------- 
A|----------------------|----5-------5--------|---------------------- 
    *armonico artificial 
 
 
(guit. 2)   Cx2  A  D | Ex4 (vii)  | Dx4   | Ex4   || 
 
Arreglo de guitarra: obiamente usan palm mute 
G|-4-------4-------4-------4-------|-2----------------------- 
D|---5-2-5---5-2-5---5-2-5---5-2-5-|---4---4--similar------ 
A|---------------------------------|-----5------------------- 
 
continuacion con lick de tapping: 
    T        T        T               (t=tocar con mano 
derecha) 
B|-12-8-5-8-12-8-5-8-12--(etc.)------------------------------ 
 
 
 
SOLO: 
Guitarra ritmica:  E - D - E - A cd 
                   E - D - E - C ad 
                   E - C - B ... 
 despues de un rato       EE - DEE - DEE ...  D E A 
 
 
 
RIFF D: 
E|------------------------|------------5-5-5-5------------ 
B|-5--5-5-7-8-7---------7-|-5--5-5-7-8---------8-7-------- 
G|--------------7-4-4-7---|------------------------------- 
 
guitarra: E - D - E - A D 
 
 
 
RIFF E: (5:57)          1.                   2. 
E|7*-------7-5-7-8-7-5|5*-------5---5-7-5|8*---------8----8-10-8- 
B|---8-5-8------------|---7---7---7------|---10-7-10---10-------- 
G|--------------------|-----7------------|----------------------- 
     *para simular el violin pulsa esta nota repetidas veces 
      tipo  'tremolo picking' 
 
guitarra: E - D - E - C ad 
 
 
 
FINAL: (A)  D - G   y  E .... .... aqui hay 8 semicorcheas 
 
 
 
SOLO:      -Em- 
 
    t        t        t        t        algo muy similar 
B|-12-8-5-8-12-8-5-8-12-8-5-8-12-8-5-8-|-10-|-12-|-13-|| 
 
 
B|------------------------------------------|-12^13^12----------- 
G|-14-16-14-16-14-16-14-12-11-11^12-11-9----|----------14-12----- 
D|------------------------------------------|----------------14-- 
 
B|-------12^13^12----------------15-15(17)-15-|-----15-14- 
G|-12-14----------14-12----12-14--------------|----------------13 
D|----------------------14--------------------|------------------ 
 
B|-17-15-14------19-17-15-14-15-17-15---14-15--|-20-19-17-----------------17------------ 
G|----------15---------------------------------|----------20-19-17-19-20-----20-19-17--- 
D|---------------------------------------------|--------------------------------------19 
 
B|-17--17--18--18--19--19--21/19--| 
 
RIFF F:                    RIFF G: 
E|-0-0-0-0-2-3-2--------2-0|-2-3-5-5-5-5-5-2-3-0| 
B|---------------3-0-0-3---|--------------------|  X 2 
 
Luego del solo haces lo mismo que hiciste antes de este luego los versos normales y  
luego el estribillo dos veces y FIN. 
 
 

		  

See also:

tabs Pignoise - Sigo Llorando Por Ti tabs Mago De Oz - Jesus De Chamberí tabs Amaral - Resurrección tabs Mago De Oz - La Danza Del Fuego tabs Mago De Oz - La Cruz De Santiago tabs Ana Gabriel - Fgbh Gj
e-chords

Other versions:

tabs Mago De Oz - Satania
auto scroll beats size up size down change color hide chords drawings
tab show chords e-chords YouTube Clip e-chords hide all tabs e-chords go to top tab

share