Mago De Oz

Maite Zaitut

Mago De Oz

tabs Expert expert

by  IRONMEJIAB

save to print version add songbook text version e-mail correct tuner
chordsukulelecavacokeyboardtabbassdrumsharmonicaflute Guitar Pro
close

there isn't a video lesson for this song

chords

Maite Zaitut

Year: 2002 - Album: Finisterra

	  		Maite Zaitut 
Mago de Oz 
Finisterra 
 
INTRO, GUITARRA SOLA 
 
e-------3-1-----3-1-----3-1-----3-1--- 
B-----3-------3-------3-------3------- 
G---0-------0-------0-------0--------- 
 
BAJO: 
 
D------------------------------------- 
A-------1-0--------3-1-0-------------- 
E---3-3-----3--3-3-------3------------ 
 
VIOLÌN: 
e--10-11-10-8-------8--------10-8----8-13--------- 
B-------------11-10---11-8--------11------11-10-8- 
G--------------------------7---------------------- 
 
Arpegio en G5 A#5 G5, G5 C5 A#5 A5 G5 
 
e--10-11-10-8-------8--------10-8----8------------- 
B-------------11-10---11-8--------11------11-10-8-- 
G--------------------------7----------------------- 
 
GOLPEANDO SUAVE LAS CUERDAS PISADAS: 
G5             A#5           G5 
Quiero ser tu piel en el invierno 
             C5     A#5 A5        G5 
para que el frìo en tì no pueda entrar. 
G5            A#5         G5 
Quiero ser la luz en tu camino, 
            C5    A#5   A5         G5 
sol en la noche, agua dulce en el mar. 
 
CON LOS MISMOS ACORDES: 
  ser la puer ta que nun ca  de  je pa  sar 
e-------------8--10--11--13--15--10--8--10- 
B--8--10--11------------------------------- 
G------------------------------------------ 
   al lar  go  silencio y  a  la   soledad 
e--10--15--10--8--------------------------- 
B-----------------11---11--10--11--10--8--- 
G------------------------------------------ 
 ser dis tin tos cuerpos con un mis  mo  fin 
e-------------8--10--11--13--15--18--17--18-- 
B--8--10--11--------------------------------- 
G-------------------------------------------- 
    ser   cariño mìo ser yo en tí 
e---21----20--18--20--18--17--15------------- 
B-------------------------------------------- 
G-------------------------------------------- 
SOLO: 
   Gm                    A#   Gm                  Dm 
e----------------------10-10--------------------------- 
B--8-8-10-11-10-8----8--------8-8-10-11-10-8----8------ 
G-----------------10-------------------------10---7-7-- 
 
e----------------------10-10--10-11-10-8-10-8--------------- 
B--8-8-10-11-10-8----8------------------------11-10-11----8- 
G-----------------10-----------------------------------10--- 
 
REPETIR EL SOLO Y LUEGO EL BAJO DEL INICIO,LUEGO CON LOS ACORDES DE LA ESTROFA: 
 
estrofa II: 
    Y  si  he  de rom per cadenas que me aten   a  la  costumbre  yo las partire 
e--10--10--10--8--10--8---------8---------------10--8------8--13-------------- 
B-----------------------11--10-----11--8---------------11---------11--10--8- 
G----------------------------------------7----------------------------------- 
Y si he de mover montañas que en mi mente no me dejen verte mi amor las movere 
e--10--10--10--8--10--8----------8--------------10--8------8------------- 
B------------------------11--10-----11--8--------------11-----11--10--8 
G------------------------------------------7---------------------------- 
Pongo por testigo a Dios que no te fallare, yo sere consejo nena pero no tu juez 
El tiempo me enseño que el alimento del amor es la confianza el respeto y el colchon. 
 
REPETIR EL PUNTEO DE LA ESTROFA II. 
REPETIR EL VIOLIN UN POCO MAS RAPIDO. 
LUEGO: 
e----------------------10-10------------------------- 
B´-8-8-10-11-10-8----8-------8-8-10-11-10-8----8----- 
G-----------------10------------------------10---7-7- 
 
e---------------------10-10---10-11-10-8------------- 
B-8-8-10-11-10-8----8--------------------11-10-8----- 
G----------------10---------------------------------- 
INTRO PARA ACABAR. 
                       FIN. 
 
 
 
 

		  

Full key step upFull key step up
Half key step upHalf key step up
Half key step downHalf key step down
Full key step downFull key step down
hide glossary

See also:

tabs Mago De Oz - Ancha es castilla tabs La Oreja de Van Gogh - V.s.o. tabs Ana Gabriel - Fgbh Gj tabs Avalanch - Torquemada tabs Avalanch - La Llama Eterna tabs Mago De Oz - Pensando En Ti
e-chords

Other versions:

tabs Mago De Oz - Maite Zaitut
auto scroll beats size up size down change color hide chords drawings
tab show chords e-chords YouTube Clip e-chords hide all tabs e-chords go to top tab

share