Mago De Oz

Atlantia

Mago De Oz

tabs Beginner beginner

by  MAGODEOZ84

save to print version add songbook text version e-mail correct tuner
chordsukulelecavacokeyboardtabbassdrumsharmonicaflute Guitar Pro
close

there isn't a video lesson for this song

chords

Atlantia

	  		Esta es la parte donde empieza la guitarra acústica y se canta un pedazo de ?Gaia?. 

(15:44) 
e|-3/5-3-1-0----0----0-1----3/5-3-1-0----0----0-1------------------------ 
B|-----------3----1------3------------3----1----------------------------- 
G|----------------------------------------------------------------------- 
D|----------------------------------------------------------------------- 
A|----------------------------------------------------------------------- 
E|----------------------------------------------------------------------- 

e|-3/5-3-1-0----0-3--8-10-5--3/5-3-1-0----0----0------------------------- 
B|-----------3-------------------------3----1----3----------------------- 
G|-----------------------------------------------------------------------D|----------------------------------------------------------------------- 
A|----------------------------------------------------------------------- 
E|----------------------------------------------------------------------- 

Así queda con el arpegio...  

(15:44) 

                          Dm 
e|-----1-------1-------1-------1-------1-------3/5-3-1-0--------0---0-1-- 
B|-------3-------3-------3-------3-------3-------------------3----1-----3 
G|---2-------2-------2-------2-------2-------2-------------2-------------   D|-0-------0-------0-------0-------0-------0---0---------0------0---0---- 
A|----------------------------------------------------------------------- 
E|----------------------------------------------------------------------- 

e|-3/5-3-1-0-------0----0-------3/5-3-1-0-------0-3--8-10-5------------- 
B|---------------3---1----3-------------------3-------------------------- 
G|-------------2--------------2-------------2----------------------------D|-0---------0-----0----0---0---0---------0-----0------------------------ 
A|----------------------------------------------------------------------- 
E|----------------------------------------------------------------------- 

e|-3/5-3-1-0-------0----0-1---------------------------------------------- 
B|---------------3---1--------------------------------------------------- 
G|-------------2---------------------------------------------------------D|-0---------0-----0----0------------------------------------------------ 
A|----------------------------------------------------------------------- 
E|----------------------------------------------------------------------- 

Y después nada mas para acompañar la voz cambia entre Dm y Am con el mismo arpegio, espero que les sirva. 
Reclamaciones o cualquier cosa a: [email protected] 
jaja 
		  

Full key step upFull key step up
Half key step upHalf key step up
Half key step downHalf key step down
Full key step downFull key step down
hide glossary

See also:

tabs Mago De Oz - Ancha es castilla tabs La Oreja de Van Gogh - V.s.o. tabs Ana Gabriel - Fgbh Gj tabs Avalanch - Torquemada tabs Avalanch - La Llama Eterna tabs Mago De Oz - Pensando En Ti
e-chords

Other versions:

tabs Mago De Oz - Atlantia
auto scroll beats size up size down change color hide chords drawings
tab show chords e-chords YouTube Clip e-chords hide all tabs e-chords go to top tab

share