Madina Lake

Here I Stand

Madina Lake

tabs Easy easy

by  J-ROD217

save to print version add songbook text version e-mail correct tuner
chordsukulelecavacokeyboardtabbassdrumsharmonicaflute Guitar Pro
close

there isn't a video lesson for this song

chords

Here I Stand

	  		   I love this song and the tuning should be in drop c or d 
                   Intermediate 
 Intro: Guitar 1 
E--------------------- 
B---------------------         \Slide  
G---------------------         * short pause 
D---------------------  Times 4 
A--------------------- 
E-3*333-2-3-5-33------ 
 Verse 1: Guitar 2         Guitar 1: Does Intro through verse 
E-xxxxxxxxx-------------------------  
B-xxxxxxxxx------------------------- 
G-xxxxxxxxx------------------------- 
D-00*0*0*00---------------- times 3 
A-00*0*0*00----------------                 
E-00*0*0*00---------------- 
 Chorus: Guitar 2           Guitar 2 Does it backwards and faster 
E-3333333333333333-xxxxxxxx- 
B-3333333333333333-xxxxxxxx- 
G-3333333333333333-xxxxxxxx-  
D--555555555555555-22222222- 
A--555555555555555-22222222- 
E-3333333333333333-00000000- 
After Chorus Guitar 1 plays intro 
  
 Verse 2: Guitar 2                 
E-xxxxxxxxx------------------------------ 
B-xxxxxxxxx------------------------------ 
G-xxxxxxxxx------------------------ 
D-00*0*0*00------------------------ Times 3 
A-00*0*0*00------------------------ 
E-00*0*0*00------------------------ 
  Repeat Chorus 
  
Bridge: 
E-xxxxxxxxx--|-333-xxx-333-xxx------------- 
B-xxxxxxxxx--|-333-xxx-333-xxx------------- 
G-xxxxxxxxx--|-333-xxx-333-xxx------------- 
D-222*22*222-|--555-22--555-22------------- Times  
A-222*22*222-|--555-22--555-22------------- 
E-000*00*000-|-333--00-333--00------------- 
 Return to Chorus last time. 
		  

See also:

tabs Ryan Cabrera - True (ver. 2) tabs Hilary Duff - Come Clean tabs My Chemical Romance - I Don't Love You tabs Maroon 5 - Harder To Breathe tabs Ashlee Simpson - La la tabs Drake bell - Makes Me Happy
e-chords

Other versions:

tabs Madina Lake - Here I Stand
auto scroll beats size up size down change color hide chords drawings
tab show chords e-chords YouTube Clip e-chords hide all tabs e-chords go to top tab

share