Madeline Juno

Waldbrand

Madeline Juno

tabs

by  UBIRBOMFIM

save to print version add songbook text version e-mail correct tuner
chordsukulelecavacokeyboardtabbassdrumsharmonicaflute Guitar Pro
close

there isn't a video lesson for this song

chords

Waldbrand

	  		---------------------------------------------------------------------------------- 

"Heute nicht, ich schau' morgen nochmal nach 
Ob die Sterne nicht doch anders stehen, ja 
Frag mich nicht, hab' es so perfektioniert 
Allen Fragen aus dem Weg zu gehen, ja" 

---------------------------------------------------------------------------------- 

"Ich pass' nicht ins Bild, gehör' hier nicht hin 
Was ihr nicht versteht, ist, nach dem Rausch frisst mich die Nüchternheit auf und 
Egal, wie ich's dreh und wende, ich geh' 
Hand in Hand mit Ethanol ins Niemandsland" 

Melodie-Part 

d|---------------------------------------------------------------------------| 
A|-----------11----------11----------13----------11----------11---------11---| 
F|-----12----------12----------12----------12----------12---------12---------| 
C|--10----10----10----10----10----10----10----10----10----10---10----10------| 
G|---------------------------------------------------------------------------| 
D|---------------------------------------------------------------------------| 

d|---------------------------------------------------------------------------| 
A|-----------11----------11----------11----------11----------13----------11--| 
F|-----12----------12----------12----------12----------12----------12--------| 
C|--10----10----10----10----10----10----10----10----10----10----10----10-----| 
G|---------------------------------------------------------------------------| 
D|---------------------------------------------------------------------------| 

d|---------------------------------------------------------------------------| 
A|-----------11----------11----------11----------11--------------------------| 
F|-----12----------12----------12----------12--------------------------------| 
C|--10----10----10----10----10----10----10----10-----------------------------| 
G|---------------------------------------------------------------------------| 
D|---------------------------------------------------------------------------| 

---------------------------------------------------------------------------------- 

"Ich brauch' 'n Waldbrand 
Unter meiner Haut 
Brenn mich aus 
Mach, dass ich neu beginnen kann, ich 
Renn' durch das Chaos, lösch' alles aus 
Steh' aus der Asche wieder auf 
Ich brauch' 'n Waldbrand" 

"Ich frage mich, was passieren muss damit ich 
Auch so taubstumm durch das Leben geh' wie ihr 
Frag mich nicht, wie lang genau das schon so ist 
Ich kann mich nicht entsinnen, ich glaub so war's schon immer" 

---------------------------------------------------------------------------------- 

"Ich pass' nicht ins Bild, gehör' hier nicht hin 
Was ihr nicht versteht, ist, nach dem Rausch frisst mich die Realität auf und 
Egal, wie ich's dreh und wende, ich geh' 
Hand in Hand mit meinen Dämonen ins Niemandsland" 

Melodie-Part 

d|---------------------------------------------------------------------------| 
A|-----------11----------11----------13----------11----------11---------11---| 
F|-----12----------12----------12----------12----------12---------12---------| 
C|--10----10----10----10----10----10----10----10----10----10---10----10------| 
G|---------------------------------------------------------------------------| 
D|---------------------------------------------------------------------------| 

d|---------------------------------------------------------------------------| 
A|-----------11----------11----------11----------11----------13----------11--| 
F|-----12----------12----------12----------12----------12----------12--------| 
C|--10----10----10----10----10----10----10----10----10----10----10----10-----| 
G|---------------------------------------------------------------------------| 
D|---------------------------------------------------------------------------| 

d|---------------------------------------------------------------------------| 
A|-----------11----------11----------11----------11--------------------------| 
F|-----12----------12----------12----------12--------------------------------| 
C|--10----10----10----10----10----10----10----10-----------------------------| 
G|---------------------------------------------------------------------------| 
D|---------------------------------------------------------------------------| 

---------------------------------------------------------------------------------- 

"Ich brauch' 'n Waldbrand 
Unter meiner Haut 
Brenn mich aus 
Mach, dass ich neu beginnen kann, ich 
Renn' durch das Chaos, lösch' alles aus 
Steh' aus der Asche wieder auf 
Unter meiner Haut 
Brenn mich aus 
Mach, dass ich neu beginnen kann, ich 
Renn' durch das Chaos, lösch' alles aus 
Steh' aus der Asche wieder auf" 

Strumming-Part 1 

d|---------------------------------------------------------------------------| 
A|--------0-----------0-----------0-----------0------------------------------| 
F|--------0-----------0-----8--8--8--8--------0------------------------------| 4x 
C|--3--3--3--3--6--6--6--6--8--8--8--8--8--8--8--8---------------------------| 
G|--3--3--3--3--6--6--6--6--6--6--6--6--8--8--8--8---------------------------| 
D|--1--1--1--1--4--4--4--4--------------6--6--6--6---------------------------| 

"Ajai, ajai, ajai, ja 
Ajai, ajai, ajai, ja 
Ajai, ajai, ajai, ja 
Oh, oh, oh, oh-oh" 

Strumming-Part 2 

d|---------------------------------------------------------------------------| 
A|---------------------------------------------------------------------------| 
F|----------8~---------------------------------------------------------------| 2x 
C|--3~--6~--8~--8~-----------------------------------------------------------| 
G|--3~--6~--6~--8~-----------------------------------------------------------| 
D|--1~--4~------6~-----------------------------------------------------------| 

---------------------------------------------------------------------------------- 

"Unter meiner Haut 
Brenn mich aus 
Mach, dass ich neu beginnen kann, ich 
Renn' durch das Chaos, lösch' alles aus 
Steh' aus der Asche wieder auf" 

---------------------------------------------------------------------------------- 

"Ich brauch' 'n Waldbrand 
Unter meiner Haut, brenn mich aus 
Mach, dass ich neu beginnen kann, ich 
Renn' durch das Chaos, lösch' alles aus 
Steh' aus der Asche wieder auf" 

"Ajai, ajai, ajai, ja 
Ajai, ajai, ajai, ja 
Ajai, ajai, ajai, ja 
Oh, oh, oh, oh-oh" 

Strumming-Part 1 

d|---------------------------------------------------------------------------| 
A|--------0-----------0-----------0-----------0------------------------------| 
F|--------0-----------0-----8--8--8--8--------0------------------------------| 3x 
C|--3--3--3--3--6--6--6--6--8--8--8--8--8--8--8--8---------------------------| 
G|--3--3--3--3--6--6--6--6--6--6--6--6--8--8--8--8---------------------------| 
D|--1--1--1--1--4--4--4--4--------------6--6--6--6---------------------------| 

d|---------------------------------------------------------------------------| 
A|--------0-----------0-----------0------------------------------------------| 
F|--------0-----------0-----8--8--8--8---------------------------------------| 1x 
C|--3--3--3--3--6--6--6--6--8--8--8--8---------------------------------------| 
G|--3--3--3--3--6--6--6--6--6--6--6--6---------------------------------------| 
D|--1--1--1--1--4--4--4--4---------------------------------------------------| 

---------------------------------------------------------------------------------- 

"Ich brauch' 'n Waldbrand" 
		  

See also:

tabs Felt - Red Indians tabs Roo Panes - Sing For The Wind tabs Roo Panes - Silver Moon tabs The Lumineers - Slow It Down tabs Yohio - Innocence tabs Xavier Baumaxa - Lidé Z Malých Vesni?ek
e-chords

Other versions:

tabs Madeline Juno - Waldbrand
auto scroll beats size up size down change color hide chords drawings
tab show chords e-chords YouTube Clip e-chords hide all tabs e-chords go to top tab

share