Low

Coattails

Low

tabs

by  UBIRBOMFIM

save to print version add songbook text version e-mail correct tuner
chordsukulelecavacokeyboardtabbassdrumsharmonicaflute Guitar Pro
close

there isn't a video lesson for this song

chords

Coattails

	  		Song from 1996's Curtain Hits The Cast 


e|----------------------------------------------------| 
B|----------------------------------------------------| 
G|------------------------0-------0-------0-------0---| 
D|-5-3-5-4---5-3-5-4----0---0---0---0---0---0---0---0-| 
A|--------------------3-------2-----------------------| 
E|-3-5-3-2---3-5-3-2------------------3-------3-------| 

e|----------------------------------------------------| 
B|----------------------------------------------------| 
G|------------------------0-------0-------0-------0---| 
D|-5-3-5-4---5-3-5-4----0---0---0---0---0---0---0---0-| 
A|--------------------3-------2-----------------------| 
E|-3-5-3-2---3-5-3-2------------------3-------3-------| 

e|-----------------------------------| 
B|-----------------------------------| 
G|-------0-------0-------0-------0---| 
D|-----0---0---0---0---0---0---0---0-| 
A|---3-------2-----------------------| 
E|-------------------3-------3-------| 

(Verse) x4 
He rides 
e|-----------------------------------| 
B|-----------------------------------| 
G|-------0-------0-------0-------0---| 
D|-----0---0---0---0---0---0---0---0-| 
A|---3-------2-----------------------| 
E|-------------------3-------3-------| 

On coattails                                                  
e|-----------------------------------| 
B|-----------------------------------| 
G|-------0-------0-------0-------0---| 
D|-----0---0---0---0---0---0---0---0-| 
A|---3-------2-----------------------| 
E|-------------------3-------3-------| 

(repeat this bit several times) 
e|----------------------------------------------------| 
B|----------------------------------------------------| 
G|------------------------0-------0-------0-------0---| 
D|-5-3-5-4---5-3-5-4----0---0---0---0---0---0---0---0-| 
A|--------------------3-------2-----------------------| 
E|-3-5-3-2---3-5-3-2------------------3-------3-------| 

(repeat several times) 
e|-------------------| 
B|-------------------| 
G|-------------------| 
D|-5-3-5-4---5-3-5-4-| 
A|-------------------| 
E|-3-5-3-2---3-5-3-2-| 

(repeat 4 times) 
e|-------------------------------------------| 
B|-------3--3-3-3-3-3-3-------3--3-3-3-3-3-3-| 
G|-------------------------------------------| 
D|-5-3-5----------------5-3-5----------------| 
A|-------------------------------------------| 
E|-3-5-3-2--------------3-5-3-2--------------| 

(repeat to fade) 
e|-----------------------------------| 
B|-----------------------------------| 
G|-------0-------0-------0-------0---| 
D|-----0---0---0---0---0---0---0---0-| 
A|---3-------2-----------------------| 
E|-------------------3-------3-------| 
		  

See also:

tabs Incubus - 11 A.M. tabs Alesana - Apology tabs Incubus - I Miss You tabs Red Hot Chili Peppers - Otherside (intro) tabs Incubus - Megalomaniac tabs Good Charlotte - Predictable
e-chords

Other versions:

tabs Low - Coattails
auto scroll beats size up size down change color hide chords drawings
tab show chords e-chords YouTube Clip e-chords hide all tabs e-chords go to top tab

share