Live

Unsheathed

Live

tabs

save to print version add songbook text version e-mail correct tuner
chordsukulelecavacokeyboardtabbassdrumsharmonicaflute Guitar Pro
close

there isn't a video lesson for this song

chords

Unsheathed

	  		 
E|--------------------------------------------------------------| 
B|----1/4-step bend------1/4-step bend--------------------------| 
G|---/---\--------------/---\-----------------------------------| 
D|-8/-----\--6-------8/-------\---6----8---5b6r5b6---5b6r5h6r etc..... 
A|--------------6-----------------------------------------------| 
E|--------------------------------------------------------------| 
 
Bsus2                           G#5 
 
E|-2-2-----2-2-----2-2-----2-2---------| 
B|-2-2-----2-2-----2-2-----2-2---------| 
G|-4-4-----4-4-----4-4-----4-4---------| 
D|-4-4-----4-4-----4-4-----4-4-----6~--| 
A|-2-2-----2-2-----2-2-----2-2-----6~--| 
E|---------------------------------4~--| 
G#m    Am7    B5 
 
E|-4------5---------------| 
B|-4------5---------------| 
G|-4------5-----------4---| 
D|-6------5------9-or-4---| 
A|-6------7------9----2---| 
E|-4------5------7--------| 
 
 
_______________________________________________________ 
Contribuição: Manolomix([email protected]) 

		  

Full key step upFull key step up
Half key step upHalf key step up
Half key step downHalf key step down
Full key step downFull key step down
hide glossary

See also:

tabs Bon Jovi - It's My Life tabs Kiss - Forever tabs Aerosmith - Dream On tabs Foo Fighters - Everlong (acústico) tabs The Doors - People Are Strange tabs The Offspring - All I Want
e-chords

Other versions:

tabs Live - Unsheathed
auto scroll beats size up size down change color hide chords drawings
tab show chords e-chords YouTube Clip e-chords hide all tabs e-chords go to top tab

share